Predator Solo

(/) Slide Up  (\) Slide Down  (h) Hammer On  (p) Pull Off  (b) Bend (r) Release (v) Vibrato


E|-----------------------------------------------------------------
B|-----------------------------------------------------------------
G|-----------------------------------------------------------------
D|---------------------------------------------------------15--15--
A|---------12--15--12------12--15--17--17--15--17--15--17----------
E|--12h15--------------15------------------------------------------



E|-----------------------------------------------------------------------------------
B|-----------------------------------------------------------------------------------
G|-----------------------------------------------------------------------------------
D|---------15------------------------------------------------------------------------
A|--15h17------17--15--12--10---------10--12--15--12--10---------10--12--15----------
E|-----------------------------10h12----------------------10h12--------------15--12--



E|-----------------------------------------------------------------
B|-----------------------------------------------------------------
G|-----------------------------------------------------------------
D|---------------------------------------------------------15--15--
A|---------12--15--12------12--15--17--17--15--17--15--17----------
E|--12h15--------------15------------------------------------------



E|-----------------------------------------------------------------------------------
B|-----------------------------------------------------------------------------------
G|-----------------------------------------------------------------------------------
D|---------15------------------------------------------------------------------------
A|--15h17------17--15--12--10---------10--12--15--12--10---------10--12--15----------
E|-----------------------------10h12----------------------10h12--------------15--12--



E|------------------------------------------------------------------------------------
B|------------------------------------------------------------------------------------
G|------------------------------------------------------------------------------------
D|-17-15----15-17-15----15--17-15----15-17-15----15--17-15----15-17-15----15-19-19-19-
A|-------17----------17-----------17----------17-----------17----------17-------------
E|------------------------------------------------------------------------------------



E|-------------------------------------------------------
B|-------------------------------------------------------
G|-------------------------------------------------------
D|-21-19-17-19-17-15-17-15-------15----------------15----
A|-------------------------15h17----17-15-12-15-17----17-
E|-------------------------------------------------------



E|-----------------------------------------------------------------
B|-----------------------------------------------------------------
G|-----------------------------------------------------------------
D|-------------15---17b---15-----------------------------15--------
A|---15---17-------------------17---15---17------15-----------17---
E|-----------------------------------------------------------------



E|----------------------------------------------------
B|----------------------------------------------------
G|----------------------------------------------------
D|-------15----------------15----------15----17-15----
A|-15h17----17-------15h17----17-15h17----17-------17-
E|-------------15h17----------------------------------



E|----------------------------------------------------
B|----------------------------------------------------
G|----------------------------------------------------
D|-------15----------------15----------15----17-15----
A|-15h17----17-------15h17----17-15h17----17-------17-
E|-------------15h17----------------------------------



E|--------------------------------------------------------------------------------
B|--------------------------------------------------------------------------------
G|--------------------------------------------------------------------------------
D|-------15----------------15----------15----17-15--------------------------------
A|-15h17----17-------15h17----17-15h17----17-------17-15-12-10-------8-10-8-------
E|-------------15h17-------------------------------------------10h12--------10-12-



E|---------------------------------------------------
B|---------------------------------------------------
G|---------------------------------------------------
D|-----------------3--5p3-----3-------3-----3--5--5--
A|-----------3--5----------5-----3h5-----5-----------
E|--0--3--5------------------------------------------



E|-----------------------------------------------------------------------------------
B|-----------------------------------------------------------------------------------
G|-----------------------------------------------------------------------------------
D|---------10--12--10------10---------10--12--10-----------------10------------------
A|--10h12--------------12------10h12--------------12--10--10h12------12--10----------
E|---------------------------------------------------------------------------10--12--
http://www.guitartabcreator.com
Guitar Tab Creator is intended to store guitar tab created through the tool. It currently does not support in-line text editing. Any text you place in here will be lost. If you need to comment on your tab, please use the "Tab Notes" section located below.