Jack Johnson - Upside Down Ukulele

(/) Slide Up  (\) Slide Down  (h) Hammer On  (p) Pull Off  (b) Bend (r) Release (v) Vibrato


E|------------|------|-
B|------------|------|-
G|-2--4--0--1-|-2--4-|-
D|-4--5--0--1-|-4--5-|-
A|-4--6--1--2-|-4--6-|-
E|-4--6--2--3-|-4--6-|-



E|------------|-----------------|-
B|------------|-----------------|-
G|-2--4--0--1-|-6---4---6--0--1-|-
D|-4--5--0--1-|-7---5---7--0--1-|-
A|-4--6--1--2-|-8---6---8--1--2-|-
E|-4--6--2--3-|-8---6---8--2--3-|-



E|------------|---|---
B|------------|---|---
G|-2--4--0--1-|-2-|---
D|-4--5--0--1-|-4-|---
A|-4--6--1--2-|-4-|---
E|-4--6--2--3-|-4-|---
http://www.guitartabcreator.com
Guitar Tab Creator is intended to store guitar tab created through the tool. It currently does not support in-line text editing. Any text you place in here will be lost. If you need to comment on your tab, please use the "Tab Notes" section located below.