Jack Johnson - Upside Down Rhythm Guitar

(/) Slide Up  (\) Slide Down  (h) Hammer On  (p) Pull Off  (b) Bend (r) Release (v) Vibrato


E|-0--2-|-0--2--5--7-|-4--2--4--2--5--7-|-
B|-0--2-|-0--2--5--7-|-4--2--4--2--5--7-|-
G|-1--2-|-1--2--6--8-|-4--2--4--2--6--8-|-
D|-2--4-|-2--4--7--9-|-6--4--6--4--7--9-|-
A|-2--4-|-2--4--7--9-|-6--4--6--4--7--9-|-
E|-0--2-|-0--2--5--7-|-4--2--4--2--5--7-|-



E|-0-0--2-2-|------5-------2---------0-------------2-------5-0-|-
B|-0-0--2-2-|------5-------2---------0-------------2-------5-0-|-
G|-1-1--2-2-|------6-------2---------1--1----------2-------6-1-|-
D|-2-2--4-4-|---7-------4---------2-------2--------4-------7\2-|-
A|-2-2--4-4-|-------------------2-----------2---4-------7----2-|-
E|-0-0--2-2-|-5-------2-------0---------------2-------5------0-|-
http://www.guitartabcreator.com
Guitar Tab Creator is intended to store guitar tab created through the tool. It currently does not support in-line text editing. Any text you place in here will be lost. If you need to comment on your tab, please use the "Tab Notes" section located below.