Jack Johnson - Upside Down Lead Guitar

(/) Slide Up  (\) Slide Down  (h) Hammer On  (p) Pull Off  (b) Bend (r) Release (v) Vibrato

E|----------------------------------|---
B|----------------------------------|---
G|-------4-------4-4h6--------------|---
D|---4/6-----4/6--------------------|---
A|---------------------4--4h6-4h6-4-|---
E|-0-------0------------------------|---



E|----------------------------------|------------------------------------|-
B|----------------------------------|------------------------------------|-
G|-------4-------4-4h6--------------|-------4-------4-4h6----------------|-
D|---4/6-----4/6-------4--4h6-4h6-4-|---4/6-----4/6-------4------2-2h4-2-|-
A|----------------------------------|------------------------2h4---------|-
E|-0-------0------------------------|-0-------0--------------------------|-



E|-----------------------|-------------------------|--------------------------|-
B|-----------------------|-------------------------|--------------------------|-
G|-----------------------|-------------------------|--------------9-9h11------|-
D|------9-------9-9h11---|------9-------9-9h11-----|------9--9/11--------9h11-|-
A|-9/11----9/11--------9-|-9/11----9/11--------7/9-|-9/11---------------------|-
E|-----------------------|-------------------------|--------------------------|-



E|----------------------------|-------------------------------|-
B|-9h12-9-----9---------------|-----------------------------9-|-
G|--------11--9h11-9---9----9-|-11--9--6\4----4/6--6/9-9h11-9-|-
D|-------------------9-9h11---|------------6------------------|-
A|----------------------------|-------------------------------|-
E|----------------------------|-------------------------------|-
http://www.guitartabcreator.com
Guitar Tab Creator is intended to store guitar tab created through the tool. It currently does not support in-line text editing. Any text you place in here will be lost. If you need to comment on your tab, please use the "Tab Notes" section located below.