Jack Johnson - Upside Down Bass

(/) Slide Up  (\) Slide Down  (h) Hammer On  (p) Pull Off  (b) Bend (r) Release (v) Vibrato


E|-------------------------|--------------------------|-
B|-------------------------|--------------------------|-
G|-------------------------|--------------------------|-
D|-------------------------|--------------------------|-
A|-7---7-7---9-7---7-7---7-|-9---9-9---11-9---9-9---9-|-
E|---------7-----------7---|---------9------------9---|-



E|-------------------------|---------------|-----
B|-------------------------|---------------|-----
G|-------------------------|---------------|-----
D|-------------------------|---------------|-----
A|-7---7h9-9-9-------------|-7-----7-----9-|-7---
E|-------------5---5h7-7-7-|-0-----0-------|-0---



E|-------------------------------------------------|-
B|-------------------------------------------------|-
G|-------------------------------------------------|-
D|-6---6-6---6-4---4-4---4-6---6-6---6-7---7h9-9-9-|-
A|---------6-----------4-----------6---------------|-
E|-------------------------------------------------|-
http://www.guitartabcreator.com
Guitar Tab Creator is intended to store guitar tab created through the tool. It currently does not support in-line text editing. Any text you place in here will be lost. If you need to comment on your tab, please use the "Tab Notes" section located below.