Jack Johnson - Sitting, Waiting, Wishing Piano Melody

(/) Slide Up  (\) Slide Down  (h) Hammer On  (p) Pull Off  (b) Bend (r) Release (v) Vibrato

After Bridge:
E|-----------|-------|-------|---------|-
B|-10-8------|-------|-----8-|---------|-
G|------9----|-----5-|-8h9---|-7-5---5-|-
D|--------10-|-5-7---|-------|-----7---|-
A|-----------|-------|-------|---------|-
E|-----------|-------|-------|---------|-

Chorus/Outro:
E|-4-|-5-|-4--5--17-|-
B|-5-|-5-|-5--5-----|-
G|-4-|-5-|-4--5-----|-
D|---|---|----------|-
A|---|---|----------|-
E|---|---|----------|-
(x16) (x8) http://www.guitartabcreator.com
Guitar Tab Creator is intended to store guitar tab created through the tool. It currently does not support in-line text editing. Any text you place in here will be lost. If you need to comment on your tab, please use the "Tab Notes" section located below.