Jack Johnson - Sitting, Waiting, Wishing Guitar Melody

(/) Slide Up  (\) Slide Down  (h) Hammer On  (p) Pull Off  (b) Bend (r) Release (v) Vibrato
E|-----------------------|------------------|-----------------|-
B|-----------------------|------------------|-----------------|-
G|-----5-----------------|------------------|-----------------|-
D|-5/7---7-5-----5-------|------------------|-----------------|-
A|-----------5/7---7p5-0-|-5h7p5-3--5/7r5-3-|-5-7-5-3-3--/5-3-|-
E|-----------------------|------------------|-----------------|-



E|--------------------|-----------------------|------------------------|-
B|--------------------|-----------------------|------------------------|-
G|-----5r-------------|-----------------------|------------------------|-
D|-5/7---7r-0-----5---|---------5---------5---|------------------------|-
A|------------5/7---7-|-0-0-5/7---7-0-5h7---7-|-7-7-7-5-3-3-3-3-3-3--3-|-
E|--------------------|-----------------------|------------------------|-



E|-------------------------------|-----------------------------|-
B|-------------------------------|-----------------------------|-
G|------------/9-7--/7-7-5-7-5-2-|----------/9-7--/7-7-5-7b7-5-|-
D|--------/6-6-------------------|------/6-6-------------------|-
A|-5-6-7-------------------------|-5-6-7-----------------------|-
E|-------------------------------|-----------------------------|-



E|------------/12-10--/10-10-8-10-8-5-|------------/12-10--/10-10-8-10b10-8-|-
B|--------/9-9------------------------|--------/9-9-------------------------|-
G|-7-8-9------------------------------|-7-8-9-------------------------------|-
D|------------------------------------|-------------------------------------|-
A|------------------------------------|-------------------------------------|-
E|------------------------------------|-------------------------------------|-



E|---------------------|------------------|---------------------|-
B|---------------------|------------------|---------------------|-
G|-0-----5-------------|------------------|---------------------|-
D|---5/7---7-0-----5---|-0-----5------5---|---------------------|-
A|-------------5/7---7-|---5/7---7--7---7-|-7-5-3-3-3-3-3-3-0/3-|-
E|---------------------|------------------|---------------------|-



E|---------------------|---------------------|-----------------------|-
B|---------------------|---------------------|-----------------------|-
G|-0-----5-------------|---------------------|-----------------------|-
D|---5/7---7-0-----5---|-------5---0-----5---|-----------------------|-
A|-------------5/7---7-|-0-5/7---7---5/7---7-|-7-7-5-3-3-3-3-3-3-0/3-|-
E|---------------------|---------------------|-----------------------|-



E|-------------------------------|---------------------------------|-
B|-------------------------------|---------------------------------|-
G|------------/9-7--/7-7-5-7-5-2-|------------/9-7--/7-7-5-7h8p7-5-|-
D|--------/6-6-------------------|--------/6-6---------------------|-
A|-5-6-7-------------------------|-5-6-7---------------------------|-
E|-------------------------------|---------------------------------|-



E|-------------|-----------|-------------------------|---
B|-------------|-----------|-------------------------|---
G|---4/5-5-5-4-|-3/4-4-4-2-|-------------------------|---
D|-------------|-----------|-5/7-7-7-7-5-5-5-3-3-5-2-|---
A|-3-----------|-----------|-------------------------|---
E|-------------|-----------|-------------------------|---



E|-------------|------------|---------------------------|-
B|-------------|------------|---------------------------|-
G|---4/5-5-5-4-|-b7-5/7-5---|---5-5-5-------------------|-
D|-------------|----------7-|-7------/9-9-9p7-9\7-7p5-2-|-
A|-3-----------|------------|---------------------------|-
E|-------------|------------|---------------------------|-
http://www.guitartabcreator.com
Guitar Tab Creator is intended to store guitar tab created through the tool. It currently does not support in-line text editing. Any text you place in here will be lost. If you need to comment on your tab, please use the "Tab Notes" section located below.