Jack Johnson - Sitting, Waiting, Wishing Bass

(/) Slide Up  (\) Slide Down  (h) Hammer On  (p) Pull Off  (b) Bend (r) Release (v) Vibrato

Verse 2:
E|----------------|-------------|-----------|---------------|-
B|----------------|-------------|-----------|---------------|-
G|----------------|-------------|-----------|---------------|-
D|----------------|-------------|-----------|---------------|-
A|--------7-----7\|-----5-----5\|-----3-----|---3-3---3-3-5-|-
E|-12\5-5---5-5---|-3-3---3-3---|-1-1---1-1-|-3-----3-------|-

E|-------------|-------------|-----------|---------------|-
B|-------------|-------------|-----------|---------------|-
G|-------------|-------------|-----------|---------------|-
D|-------------|-------------|-----------|---------------|-
A|-----7-----7\|-----5-----5\|-----3-----|---3-3---3-3-5-|-
E|-5-5---5-5---|-3-3---3-3---|-1-1---1-1-|-3-----3-------|-

Chorus 2:
E|-------------------------|-------------------------|---
B|-------------------------|-------------------------|---
G|-------------------------|-------------------------|---
D|-------------------------|-------------------------|---
A|-7-7---7-7---7-7---7-7---|-----7-----7-----7-------|---
E|-----7-----7-----7-----7\|-5-5---5-5---5-5---5-5-7-|---
(x2)
Bridge:
E|------------------------------------------------------------|---
B|------------------------------------------------------------|---
G|------------------------------------------------------------|---
D|------------------------------------------------------------|---
A|---------------7-7--7-7-7--7-8-8--8-8-8--8-10-10--10-8-8--7-|---
E|-8-8--8-8-8--8----------------------------------------------|---

E|---------------------------------------------------------------|-
B|---------------------------------------------------------------|-
G|---------------------------------------------------------------|-
D|---------------------------------------------------------------|-
A|---------------7-7--7-7-7--7-8-8--8-8-8--8-10-10--10-10-10--10-|-
E|-8-8--8-8-8--8-------------------------------------------------|-

Post-Bridge/Verse 3:
E|-------------|-------------|-----------|---------------|-
B|-------------|-------------|-----------|---------------|-
G|-------------|-------------|-----------|---------------|-
D|-------------|-------------|-----------|---------------|-
A|-----7-----7\|-----5-----5\|-----3-----|---3-3---3-3-5-|-
E|-5-5---5-5---|-3-3---3-3---|-1-1---1-1-|-3-----3-------|-
(x4)
Chorus 3:
E|-------------------------|-------------------------|---
B|-------------------------|-------------------------|---
G|-------------------------|-------------------------|---
D|-------------------------|-------------------------|---
A|-7-7---7-7---7-7---7-7---|-----7-----7-----7-------|---
E|-----7-----7-----7-----7\|-5-5---5-5---5-5---5-5-7-|---
(x3)
Outro:
E|-------------------------|-----------------------------|-
B|-------------------------|-----------------------------|-
G|-------------------------|-----------------------------|-
D|-------------------------|-----------------------------|-
A|-7-7---7-7---7-7---7-7---|-----7-------7-7---7-5-------|-
E|-----7-----7-----7-----7\|-5-5---5-5-7-----7-----8-7-5-|-
http://www.guitartabcreator.com
Guitar Tab Creator is intended to store guitar tab created through the tool. It currently does not support in-line text editing. Any text you place in here will be lost. If you need to comment on your tab, please use the "Tab Notes" section located below.