Jack Johnson - Banana Pancakes Guitar Melody

(/) Slide Up  (\) Slide Down  (h) Hammer On  (p) Pull Off  (b) Bend (r) Release (v) Vibrato

Intro:
E|-------------------------|-----------------|-------|-
B|-------------------------|-----------------|-------|-
G|-0-----7-9-7-------------|-----------------|-0/7---|-
D|---7/9-------9-9-7h9p7-5-|-5/9-9-9-9-9-9-5-|-----9-|-
A|-------------------------|-----------------|-------|-
E|-------------------------|-----------------|-------|-

Verse 1:
E|------------------|----------------|------------------|----------------|-
B|------------------|----------------|------------------|----------------|-
G|-0-----7b---------|-----7----------|-----7------------|-----7----------|-
D|---7/9---9-7----7-|-7/9---9-7/7b---|-7/9---9-7----7-0-|-7/9---9-7/7b---|-
A|-------------11v--|--------------7-|-----------11v----|--------------7-|-
E|------------------|----------------|------------------|----------------|-

E|----------------|--------------|------------------|---------------------|-
B|----------------|--------------|------------------|---------------------|-
G|-----7----------|-----7--------|-----7------------|-----7---------------|-
D|-7/9---9-7----7-|-7/9---9-7/7b-|-7h9---9-7----7-0-|-7/9---9-7-5/7-7p5---|-
A|-----------11v--|--------------|-----------11v----|------------------h7-|-
E|----------------|--------------|------------------|---------------------|-

Chorus 1:
E|--------------------|--------------------------|-----------------|-------|-
B|--------------------|--------------------------|-----------------|-------|-
G|-------7------------|-------7------------------|-----------------|-0/7---|-
D|-0-7h9---9-7-5---5v-|-0-7/9---9-7-5---5/7-5/7v-|--/9-9-9-9-9-9-5-|-----9-|-
A|---------------7----|---------------7----------|-7---------------|-------|-
E|--------------------|--------------------------|-----------------|-------|-

Verse 2:
E|----------------|----------------|------------------|----------------|-
B|----------------|----------------|------------------|----------------|-
G|-----7b---------|-----7----------|-----7------------|-----7----------|-
D|-7/9---9-7----7-|-7/9---9-7/7b---|-7h9---9-7----7-0-|-7/9---9-7/7b---|-
A|-----------11v--|--------------7-|-----------11v----|--------------7-|-
E|----------------|----------------|------------------|----------------|-

E|--------------|-------------------|------------------|-------------------|-
B|--------------|-------------------|------------------|-------------------|-
G|---7----------|---------7---------|-----7------------|-----7-------------|-
D|-9---9-7----7-|-0-0-7h9---9-7/7b--|-7/9---9-7----7-0-|-7/9---9-7-5b-7----|-
A|---------11v--|-----------------7-|-----------11v----|----------------7v-|-
E|--------------|-------------------|------------------|-------------------|-

Chorus 2:
E|--------------------|-------------------------|-----------------|-
B|--------------------|-------------------------|-----------------|-
G|-------7------------|-------7-----------------|-----------------|-
D|-0-7h9---9-7-5---5v-|-0-7/9---9-7-5---7v-5/7v-|-0/9-9-9-9-9-9-5-|-
A|---------------7----|---------------7---------|-----------------|-
E|--------------------|-------------------------|-----------------|-

Bridge:
E|---------------|----------|--------------------|---------------|-
B|---------------|----------|--------------------|---------------|-
G|------7--------|----------|------7-------------|---------------|-
D|-9-10--/9/9-7v-|-/9--\7-5-|-9-10--/9/9-7h9p7\5-|-/9-9--\7-7b-5-|-
A|---------------|----7-----|--------------------|------7--------|-
E|---------------|----------|--------------------|---------------|-

E|------------------------------------------|-------------|-
B|----------------------------------------5-|-------------|-
G|-5/7-7-7--5/7-7-7-7--5/7-7-7-7--5/7-7-7-5-|------7------|-
D|-7/9-9-9--7/9-9-9-9--7/9-9-9-9--7/9-9-9-7-|-9-10---10-9-|-
A|------------------------------------------|-------------|-
E|------------------------------------------|-------------|-

E|--------------------------------------------|---------------|-
B|------------------------------------------5-|---------------|-
G|-5/7-7-7-7--5/7-7-7-7--5/7-7-7-7--5-7-7-7-5-|------7--------|-
D|-7/9-9-9-9--7/9-9-9-9--7/9-9-9-9--7/9-9-9-7-|-9-10---10-9-7-|-
A|--------------------------------------------|---------------|-
E|--------------------------------------------|---------------|-

E|---------------------|---------------------------|-
B|---------------------|---------------------------|-
G|---------------------|--/9-9-7-7-----------------|-
D|-9-9-7/9-9-7/9-7/9-9-|-----------9-9/9-9-7h9p7-5-|-
A|---------------------|-7-------------------------|-
E|---------------------|---------------------------|-

E|-------------------------------|-------|-
B|-------------------------------|-------|-
G|--/7/7-------------------------|-0/7---|-
D|-------9v-/9-7h9p7\5--/7/7-5\0-|-----9-|-
A|-------------------------------|-------|-
E|-------------------------------|-------|-

Optional Bridge:
E|-------------------|-------------|--------
B|-------------------|-------------|--------
G|--11--11--9h11--9--|--12--11--7--|--------
D|-------------------|-------------|--------
A|-------------------|-------------|--------
E|-------------------|-------------|--------

Verse 3:
E|------------------|---------------|----------------|---------------------|-
B|------------------|---------------|----------------|---------------------|-
G|-0-----7b---------|-----7---------|-----7----------|-----7---------------|-
D|---7/9---9-7----7-|-7/9---9-7/7b--|-7/9---9----7-0-|-7/9---9-7-----5-7-5-|-
A|-------------11v--|-------------7-|---------11v----|-----------5/7-------|-
E|------------------|---------------|----------------|---------------------|-

E|----------------|--------------|------------------|---------------------|-
B|----------------|--------------|------------------|---------------------|-
G|-----7----------|-----7--------|-----7------------|-----7---------------|-
D|-7/9---9-7----7-|-7/9---9-7/7v-|-7h9---9-7----7-0-|-7/9---9-7-5/7-7p5---|-
A|-----------11v--|--------------|-----------11v----|------------------h7-|-
E|----------------|--------------|------------------|---------------------|-

Chorus 3:
E|---------------------|---------------------|-----------------|-
B|---------------------|---------------------|-----------------|-
G|-------7-------------|-------7-------------|-----------------|-
D|-0-7h9---9-7-5---5v--|-0-7/9---9-7-5---7/7-|-0/9-9-9-9-9-9-5-|-
A|---------------7-----|---------------7-----|-----------------|-
E|---------------------|---------------------|-----------------|-

Outro:
E|---------------|------------------------------|--------------------|---------|-
B|---------------|------------------------------|--------------------|---------|-
G|------7--------|------7-----------------------|------7-------------|---------|-
D|-9-10--/9/9-7v-|-9-10---10p9-10p9-9p7-9p7-5-0-|-9-10--/9/9-7h9p7-5-|-0/7-7-5-|-
A|---------------|------------------------------|--------------------|---------|-
E|---------------|------------------------------|--------------------|---------|-
http://www.guitartabcreator.com
Guitar Tab Creator is intended to store guitar tab created through the tool. It currently does not support in-line text editing. Any text you place in here will be lost. If you need to comment on your tab, please use the "Tab Notes" section located below.