Jack Johnson - Banana Pancakes Guitar Chords

(/) Slide Up  (\) Slide Down  (h) Hammer On  (p) Pull Off  (b) Bend (r) Release (v) Vibrato

Intro:
E|-------------------5-|-------------------3-|---
B|-------------------5-|-------------------3-|---
G|-------------------5-|-------------------4-|---
D|-------------------5-|-------------------3-|---
A|-----5-------------7-|-------5-----------5-|---
E|-5/7---7-5-3-0-3/5-5-|-0-5/7---7-5-3-0-3-3-|---

E|-------------------5-|-------------------3-|-3-3-|-
B|-------------------5-|-------------------3-|-3-3-|-
G|-------------------5-|-------------------4-|-5-5-|-
D|-------------------5-|-------------------3-|-4-4-|-
A|-----5-7-5---------7-|-------5-----------5-|-5-5-|-
E|-5/7-------7-0-3/5-5-|-0-5/7---7-5-3-0-3-3-|-3-3-|-

Verses: Optional Verse 1:
E|-3--5--5--3-|-|-3--5--5----------|-
B|-3--7--5--5-|-|-3--7--5----------|-
G|-4--5--5--3-|-|-4--5--5----------|-
D|-3--7--5--5-|-|-3--7--5------5---|-
A|-5--5--7--3-|-|-5--5--7--5/7---7-|-
E|-3--5--5--3-|-|-3--5--5----------|-
(x4)
Chorus:
E|-5-|-------------------3-|-------------------5-|-------------------3-|-3-3-|-
B|-5-|-------------------3-|-------------------5-|-------------------3-|-3-3-|-
G|-5-|-------------------4-|-------------------5-|-------------------4-|-5-5-|-
D|-5-|-------------------3-|-------------------5-|-------------------3-|-4-4-|-
A|-7-|-------5-----------5-|-----5-------------7-|-------5-----------5-|-5-5-|-
E|-5-|-0-5h7---7-5-3-0-3-3-|-5/7---7-5-3-0-3/5-5-|-0-5/7---7-5-3-0-3-3-|-3-3-|-

Bridge:
E|-5-3-5-3-|-5-5-5-5-|-2-7-7--8--3-5-3-|-3-3-|-
B|-5-3-5-3-|-5-7-5-7-|-3-8-8--8--3-7-3-|-3-3-|-
G|-5-4-5-4-|-5-7-5-7-|-4-9-7--9--4-7-4-|-5-5-|-
D|-5-3-5-3-|-5-7-5-7-|-4-9-9--10-3-7-5-|-4-4-|-
A|-7-5-7-5-|-7-5-7-5-|-2-7-10-10-5-5-5-|-5-5-|-
E|-5-3-5-3-|-5-5-5-5-|-2-7-7--8--3-5-3-|-3-3-|-

Outro:
E|--5--3--5--3--|--
B|--5--3--5--3--|--
G|--5--4--5--4--|--
D|--5--3--5--5--|--
A|--7--5--7--5--|--
E|--5--3--5--3--|--
http://www.guitartabcreator.com
Guitar Tab Creator is intended to store guitar tab created through the tool. It currently does not support in-line text editing. Any text you place in here will be lost. If you need to comment on your tab, please use the "Tab Notes" section located below.