Jack Johnson - Banana Pancakes Bass

(/) Slide Up  (\) Slide Down  (h) Hammer On  (p) Pull Off  (b) Bend (r) Release (v) Vibrato

Intro:
E|-----|-
B|-----|-
G|-----|-
D|-0-0-|-
A|-----|-
E|-----|-

Verse 1:
E|-----------------|-------------------|-----------------|-----------------|-------------|-
B|-----------------|-------------------|-----------------|-----------------|-------------|-
G|-----------------|-------------------|-----------------|-----------------|-------------|-
D|-----0-0---------|-----0-0-----------|-----0-0---------|-----0-0---------|-------------|-
A|---------0-0-3-3-|---------0-0-3-3-0-|---------0-0-3-3-|---------0-0-3-3-|-0--0-0--0-0-|-
E|-3-3-------------|-3-3---------------|-3-3-------------|-3-3-------------|-------------|-

Chorus:
E|-------------------------|-------------------------|-------------------------|-----
B|-------------------------|-------------------------|-------------------------|-----
G|-------------------------|-------------------------|-------------------------|-----
D|---0---------------------|---0---------------------|---0---------------------|-0-0-
A|-2---2-0-----------------|-2---2-0-----0--0-0--0-0-|-2---2-0-----------------|-----
E|---------3-0-3--3-3--3-3-|---------3-0-------------|---------3-0-3--3-3--3-3-|-----

Verse 2:
E|-----------------|-------------------|-----------------|----------------|-------------|-
B|-----------------|-------------------|-----------------|----------------|-------------|-
G|-----------------|-------------------|-----------------|----------------|-------------|-
D|-----0-0---------|-----0-0-----------|-----0-0---------|-----0-0--------|-------------|-
A|---------0-0-3-3-|---------0-0-3-3-0-|---------0-0-3-3-|---------0-0-3v-|-0--0-0--0-0-|-
E|-3-3-------------|-3-3---------------|-3-3-------------|-3-3------------|-------------|-

Chorus:
E|-------------------------|-------------------------|------------------------------|-
B|-------------------------|-------------------------|------------------------------|-
G|-------------------------|-------------------------|------------------------------|-
D|---0---------------------|---0---------------------|---0--------------------------|-
A|-2---2-0-----------------|-2---2-0-----0--0-0--0-0-|-2---2-0----------------------|-
E|---------3-0-3--3-3--3-3-|---------3-0-------------|---------3-0-3--3-3--3-3--3-3-|-

Bridge:
E|--------------------|--------------------|--------------------|---------------------|-
B|--------------------|--------------------|--------------------|---------------------|-
G|--------------------|--------------------|--------------------|---------------------|-
D|--------------------|--------------------|--------------------|---------------------|-
A|---0--0-0--0-0--0-0-|-0------------------|---0--0-0--0-0--0-0-|-0-------------------|-
E|-3------------------|---3--3-3--3-3--3-3-|-3------------------|---3---3-3--3-3--3-3-|-

E|--------------------|------------------|------------------|------------------|-
B|--------------------|------------------|------------------|------------------|-
G|--------------------|------------------|------------------|------------------|-
D|------------------2-|-0--0-0--0-0--0---|----------------2-|-0--0-0--0-0--0-0-|-
A|---0--0-0--0-0--0---|----------------3-|-0--0-0--0-0--0---|------------------|-
E|-3------------------|------------------|------------------|------------------|-

E|------------------|--------------------|---------------------|---------------|-----
B|------------------|--------------------|---------------------|---------------|-----
G|------------------|--------------------|---------------------|---------------|-----
D|------------------|--------------------|-------------0--0-0--|-0-------------|-0-0-
A|-2--2-2--2-2--2-2-|-2-7--7-5--5-3--3-3-|-3-------------------|---------------|-----
E|------------------|--------------------|---3--3-3--3---------|---3--3-3--3-3-|-----

Verse 3:
E|-----------------|-------------------|-----------------|------------------|-------------|-
B|-----------------|-------------------|-----------------|------------------|-------------|-
G|-----------------|-------------------|-----------------|------------------|-------------|-
D|-----0-0---------|-----0-0-----------|-----0-0---------|-----0-0----------|-------------|-
A|---------0-0-3-3-|---------0-0-3-3-0-|---------0-0-3-3-|---------0-0-3--3-|-0--0-0--0-0-|-
E|-3-3-------------|-3-3---------------|-3-3-------------|-3-3--------------|-------------|-

Chorus:
E|-------------------------|-------------------------|------------------------------|-
B|-------------------------|-------------------------|------------------------------|-
G|-------------------------|-------------------------|------------------------------|-
D|---0---------------------|---0---------------------|---0--------------------------|-
A|-2---2-0-----------------|-2---2-0-----0--0-0--0-0-|-2---2-0----------------------|-
E|---------3-0-3--3-3--3-3-|---------3-0-------------|---------3-0-3--3-3--3-3--3-3-|-

E|--------------------|--------------------|--------------------|--------
B|--------------------|--------------------|--------------------|--------
G|--------------------|--------------------|--------------------|--------
D|--------------------|--------------------|--------------------|--------
A|---0--0-0--0-0--0-0-|-0------------------|---0--0-0--0-0--0-0-|--------
E|-3------------------|---3--3-3--3-3--3-3-|-3------------------|-3v-----
http://www.guitartabcreator.com
Guitar Tab Creator is intended to store guitar tab created through the tool. It currently does not support in-line text editing. Any text you place in here will be lost. If you need to comment on your tab, please use the "Tab Notes" section located below.