Charlie Chaplin - Smile

(/) Slide Up  (\) Slide Down  (h) Hammer On  (p) Pull Off  (b) Bend (r) Release (v) Vibrato


E|-----------------------------------------------------|-
B|-1-3-3/5-3\1-0---------------------0-----0-1-4-6-7\2-|-
G|---------------2-2/4-5-7-5-4\2-0-2---6\2-------------|-
D|-----------------------------------------------------|-
A|-----------------------------------------------------|-
E|-----------------------------------------------------|-



E|--------------------------------------------------------------------------------
B|-4-6-7-9/11-9---------------9/10-9----------------------------------------------
G|--------------11-10-8-11-11--------11-10-8---10-11-10-11-10\8-6/8---8/10-8/10\6-
D|------------------------------------------------------------------8-------------
A|--------------------------------------------------------------------------------
E|--------------------------------------------------------------------------------
http://www.guitartabcreator.com
Guitar Tab Creator is intended to store guitar tab created through the tool. It currently does not support in-line text editing. Any text you place in here will be lost. If you need to comment on your tab, please use the "Tab Notes" section located below.