AJ Rafael - We Could Happen Ukulele

(/) Slide Up  (\) Slide Down  (h) Hammer On  (p) Pull Off  (b) Bend (r) Release (v) Vibrato


E|------------------------------------------|------------------------------|-
B|------------------------------------------|------------------------------|-
G|-------------5/7-5----------5/7-5---------|--------------------2h3-2-----|-
D|-3--3-5/7--3-------6h7--3-5-------6h7-5-3-|-2-3----2-3---2h3-5-------3-5-|-
A|------------------------------------------|-----2------1-----------------|-
E|------------------------------------------|------------------------------|-



E|---------------------------|-
B|---------------------------|-
G|-2--2--2--0--2--3--2--0--0-|-
D|-3--2--3--1--1--3--2--0--2-|-
A|-2--2--4--2--2--4--2--1--0-|-
E|-0--4--0--2--0--5--4--2--2-|-



E|------------|-
B|------------|-
G|-2--0--2--3-|-
D|-3--2--3--3-|-
A|-2--2--4--3-|-
E|-4--2--4--5-|-



E|---------------------------|-
B|---------------------------|-
G|-2--2--2--0--2--3--2--0--0-|-
D|-3--2--3--1--1--3--2--0--2-|-
A|-2--2--4--2--2--4--2--1--0-|-
E|-4--4--4--2--0--5--4--2--2-|-



E|------------|-
B|------------|-
G|-2--0--2--3-|-
D|-3--2--3--3-|-
A|-2--2--4--3-|-
E|-0--2--0--5-|-



E|------------|------|-
B|------------|------|-
G|-2--2--2--0-|-3--3-|-
D|-3--2--3--0-|-3--3-|-
A|-4--2--2--1-|-4--3-|-
E|-0--4--0--2-|-5--5-|-



E|-------------------------------------|----------------------|-
B|-------------------------------------|----------------------|-
G|----5/7-5---5-10-9-7-5-----5---------|--------------------2-|-
D|-3--------7------------6h7---7\5-3-3-|-2-3----2-3-----3---3-|-
A|-------------------------------------|-----2------1-------2-|-
E|-------------------------------------|--------------------0-|-
http://www.guitartabcreator.com
Guitar Tab Creator is intended to store guitar tab created through the tool. It currently does not support in-line text editing. Any text you place in here will be lost. If you need to comment on your tab, please use the "Tab Notes" section located below.