AJ Rafael - We Could Happen Piano

(/) Slide Up  (\) Slide Down  (h) Hammer On  (p) Pull Off  (b) Bend (r) Release (v) Vibrato


E|----------|----------|---------|----------|----------|----------|---------|-
B|----------|----------|---------|----------|----------|----------|---------|-
G|-10-9-5---|-10-9-5-7-|-7-5-----|-10-9-5---|-10-9-5---|-10-9-5-7-|-7-5-----|-
D|--------5-|----------|-----7-8-|--------7-|--------5-|----------|-----7-8-|-
A|----------|----------|---------|----------|----------|----------|---------|-
E|----------|----------|---------|----------|----------|----------|---------|-



E|----------|----------|---------|-
B|----------|----------|---------|-
G|-10-9-5---|-10-9-5-7-|-7-5-----|-
D|--------5-|----------|-----7-8-|-
A|----------|----------|---------|-
E|----------|----------|---------|-



E|-
B|-
G|-
D|-
A|-
E|-
http://www.guitartabcreator.com
Guitar Tab Creator is intended to store guitar tab created through the tool. It currently does not support in-line text editing. Any text you place in here will be lost. If you need to comment on your tab, please use the "Tab Notes" section located below.