AJ Rafael - We Could Happen Guitar

(/) Slide Up  (\) Slide Down  (h) Hammer On  (p) Pull Off  (b) Bend (r) Release (v) Vibrato


E|-3--7--7--5--3--8---7--5--5-|-
B|-3--7--8--6--3--8---7--5--7-|-
G|-4--7--9--7--4--9---7--6--5-|-
D|-5--9--9--7--3--10--9--7--7-|-
A|-5--9--7--5--5--10--9--7--5-|-
E|-3--7--------3--8---7--5----|-



E|-3--5--7--8--|-
B|-3--7--8--8--|-
G|-4--7--9--8--|-
D|-5--7--9--10-|-
A|-5--5--7--10-|-
E|-3--5-----8--|-



E|-7--7--3--5-|-8---8--|-8--|-
B|-8--7--3--5-|-8---8--|-8--|-
G|-9--7--4--6-|-9---8--|-8--|-
D|-9--9--5--7-|-10--10-|-10-|-
A|-7--9--5--7-|-10--10-|-10-|-
E|----7--3--5-|-8---8--|-8--|-
http://www.guitartabcreator.com
Guitar Tab Creator is intended to store guitar tab created through the tool. It currently does not support in-line text editing. Any text you place in here will be lost. If you need to comment on your tab, please use the "Tab Notes" section located below.