1

(/) Slide Up  (\) Slide Down  (h) Hammer On  (p) Pull Off  (b) Bend (r) Release (v) Vibrato

E|-----------------5--5--4--4--3--2--2--1--
B|-----------------5--5--5--5--3--3--3--3--
G|-----------------------------------------
D|-----------------------------5-----------
A|--------------------------------5--5--5--
E|--3--3--4--5--5--5--5--------------------



E|-----------5--7--5--3-----
B|-----------------------3--
G|--------------------------
D|--------------------------
A|--------------------------
E|--3--4--5-----------------



E|-----------5--7--5--3--------------3-----5--
B|-----------------------5--3--4--5-----5-----
G|--------------------------------------------
D|--------------------------------------------
A|--------------------------------------------
E|--3--4--5-----------------3--4--5-----5-----
http://www.guitartabcreator.com
Guitar Tab Creator is intended to store guitar tab created through the tool. It currently does not support in-line text editing. Any text you place in here will be lost. If you need to comment on your tab, please use the "Tab Notes" section located below.