"Easy" guitar solo commodores

(/) Slide Up  (\) Slide Down  (h) Hammer On  (p) Pull Off  (b) Bend (r) Release (v) Vibrato


E|---------------------16b18--16b18--18v----------
B|--14b16--14b16--14v---------------------18b20v--
G|------------------------------------------------
D|------------------------------------------------
A|------------------------------------------------
E|------------------------------------------------



E|-----------------9/16---------------------------------11b13--7-------------------------------
B|-------------9v-------------------------------------------------9--7-------------------------
G|----------------------------------------------------------------------8--6--4--6b8--6--4-----
D|--8b9--8--6------------8b9--8--6--6v-------8b9--8--6--------------------------------------6--
A|--------------------------------------8\5----------------------------------------------------
E|---------------------------------------------------------------------------------------------



E|--13--11--13---------11------------------------------13------13-----11--
B|--------------11b13------11b13--11b13--11p9-----------------------------
G|---------------------------------------------10--10------10------8------
D|------------------------------------------------------------------------
A|------------------------------------------------------------------------
E|------------------------------------------------------------------------
http://www.guitartabcreator.com
Guitar Tab Creator is intended to store guitar tab created through the tool. It currently does not support in-line text editing. Any text you place in here will be lost. If you need to comment on your tab, please use the "Tab Notes" section located below.