Out Of My Mind - John Mayer (Where the Light Is)

(/) Slide Up  (\) Slide Down  (h) Hammer On  (p) Pull Off  (b) Bend (r) Release (v) Vibrato


E|----------------------------------------------------------------------------------------
B|-------------10---------------------13b15--10--13--10h13p10------10---------------------
G|-------------10h11-------------------------------------------12------12p10------10v-----
D|------9--12-----------------------------------------------------------------12----------
A|--12----------------12------------------------------------------------------------------
E|----------------------------------------------------------------------------------------



E|--------------------------------------------------------------------
B|----------------------------------------------------------10--------
G|----------------------------------------------------------10h11-----
D|--12p10------------------------------------------10h12-----------9--
A|---------12p10---------10---------10--------------------------------
E|----------------13b14------13b14------13b14--10---------------------



E|--------------------------------------------------10---------
B|--13b15--10--13--15r13--10--13----13b15--13b15--------13p10--
G|-------------------------------------------------------------
D|-------------------------------------------------------------
A|-------------------------------------------------------------
E|-------------------------------------------------------------



E|-----------------------------------------------------------------------------------------
B|-----------------------------------------------------------------------------------------
G|--14r12--10------12--10--12--10--12--10--12--10--12--10--12--10--12--10--12--10--12--10--
D|-----------------------------------------------------------------------------------------
A|-----------------------------------------------------------------------------------------
E|-----------------------------------------------------------------------------------------



E|--------------------------------------------------------------------------
B|--------------------------------------------------------------------------
G|--12b14r12p10----------10----------------10-------------------------------
D|---------------12--12------12p10---------10-------------------10h12v--10--
A|----------------------------------12p10--10h12--12p10---------------------
E|-------------------------------------------------------13p10--------------



E|--
B|--
G|--
D|--
A|--
E|--
http://www.guitartabcreator.com
Guitar Tab Creator is intended to store guitar tab created through the tool. It currently does not support in-line text editing. Any text you place in here will be lost. If you need to comment on your tab, please use the "Tab Notes" section located below.