Whom Shall I Fear God of Angel Armies- Lead Guitar (Key B)

(/) Slide Up  (\) Slide Down  (h) Hammer On  (p) Pull Off  (b) Bend (r) Release (v) Vibrato


E|--------------------------------9----------------------------------------------------
B|-------------------------------------------------------------------------------------
G|-----9--11-----9--11-----9--11-----11-----9--11-----9--11-----9--11------------------
D|--9---------9---------9----------------9---------9---------9---------9b9-------------
A|--------------------------------------------------------------------------13--11--9--
E|-------------------------------------------------------------------------------------



E|--------------------------------9------
B|---------------------------------------
G|-----9--11-----9--11-----9--11-----11--
D|--9---------9---------9----------------
A|---------------------------------------
E|---------------------------------------
http://www.guitartabcreator.com
Guitar Tab Creator is intended to store guitar tab created through the tool. It currently does not support in-line text editing. Any text you place in here will be lost. If you need to comment on your tab, please use the "Tab Notes" section located below.