Lead me to the Cross

(/) Slide Up  (\) Slide Down  (h) Hammer On  (p) Pull Off  (b) Bend (r) Release (v) Vibrato

Instrumental:
E|--------------7--9--7--9--14--------------------7--9--7--9--12--10---------
B|--7--8--7--8------------------------7--8--7--8----------------------10--7--
G|---------------------------------------------------------------------------
D|---------------------------------------------------------------------------
A|---------------------------------------------------------------------------
E|---------------------------------------------------------------------------


Lead to the Bridge:
E|---------------------------------7-7-7-7-7-7-7-7-9-9-9-9-9-9-9-9-10------
B|-7-7-7-7-7-7-7-7-7-7-7-7-7-7-7-7-----------------------------------------
G|-------------------------------------------------------------------------
D|-------------------------------------------------------------------------
A|-------------------------------------------------------------------------
E|-------------------------------------------------------------------------
http://www.guitartabcreator.com
Guitar Tab Creator is intended to store guitar tab created through the tool. It currently does not support in-line text editing. Any text you place in here will be lost. If you need to comment on your tab, please use the "Tab Notes" section located below.