Little Wing

(/) Slide Up  (\) Slide Down  (h) Hammer On  (p) Pull Off  (b) Bend (r) Release (v) Vibrato
E|--x--------3p|--x--------------------------3--3h5p|-------------------|--------------------|-----
B|--x----------|--x--------------------------3------|--3--3-------3--3--|--------------------|-----
G|--x--12/2----|--x-------0------------------0------|--4--4--4h5--4--4--|--------------5-----|-----
D|--x----------|--x----------5-------5--5h7---------|--5--5-------5--5--|--------------------|-----
A|--x----------|--x--0h2-----5--5h7--5--------------|-------------------|--------5--7-----7--|-----
E|--x----------|--x--------------------------3------|-------------------|--3/5v--------------|-----



E|-------------------------------|--------------|--------------|-----------------|--
B|-------------------------------|--8--8h10-----|--------------|-----------------|--
G|--5h7--------------------------|--7--------7--|--------------|--7h9--7---------|--
D|-------5h7p5-------------------|--------------|--7--7--------|-----------------|--
A|--------------5h7p5------------|--------------|--7--7--10p7--|----------10--7--|--
E|---------------------5h7p5--0--|--------------|--------------|-----------------|--



E|-----------------------------|--------------------|---------------------------------|--
B|-------------------------10--|--------------------|---------------------------------|--
G|-------7--7h9--9--10--9------|-----7-----6-----5--|--5-------5-----7----------------|--
D|-------9---------------------|-----9-----8-----7--|--7--7h9--0--------5--7--5-------|--
A|-----------------------------|--------------------|----------0--8-------------------|--
E|--6/7------------------------|--7-----6-----5-----|----------0-----------------5/7--|--



E|--------5-----------|------------------|--7-------7--7-------------
B|-----3-----5--3--1--|--1--1h3--3--3h5--|--7-------7--7-------------
G|-----4-----6--4--2--|------------------|--7-------7--7-------------
D|-----5-----7--5--3--|--3-------5-------|--7--7h9--7--7-------------
A|--------------------|--4-------6-------|--7-------7--7--7h9--7h10--
E|--0-----------------|------------------|--7-------7--7-------------



E|-----------12--|--
B|-----------12--|--
G|-----------12--|--
D|-----7-----12--|--
A|--7--7--9--12--|--
E|-----------12--|--
http://www.guitartabcreator.com
Guitar Tab Creator is intended to store guitar tab created through the tool. It currently does not support in-line text editing. Any text you place in here will be lost. If you need to comment on your tab, please use the "Tab Notes" section located below.