Help me make it

(/) Slide Up  (\) Slide Down  (h) Hammer On  (p) Pull Off  (b) Bend (r) Release (v) Vibrato


E|-----------------------|-----------------------|-----------------------|-----------------------|--
B|-----5--6--5-----------|--5--8--6--5--5--------|-----5--6--5-----------|--6--6--5-----------5--|--
G|--5-----------5--7-----|-----------------7--5--|--7-----------7--2--4--|-----------7--5--7-----|--
D|--------------------5--|-----------------------|-----------------------|-----------------------|--
A|-----------------------|-----------------------|-----------------------|-----------------------|--
E|-----------------------|-----------------------|-----------------------|-----------------------|--



E|-----------------------|------------------------|--8--8--8--8--7--5--3--|--8--5--8--5--8--10--7--5-----
B|--6--6--5--------------|--------6--6--8--8--10--|-----------------------|------------------------------
G|-----------7--5--4--5--|--5--5------------------|-----------------------|------------------------------
D|-----------------------|------------------------|-----------------------|------------------------------
A|-----------------------|------------------------|-----------------------|------------------------------
E|-----------------------|------------------------|-----------------------|------------------------------



E|--8--8--7--5--7--------|-----------------------|-----------------------|-----------------------|--
B|-----------------8--8--|-----5--6--5-----------|--5--8--6--5--5--------|-----5--6--5-----------|--
G|-----------------------|--5-----------5--7-----|-----------------7--5--|--7-----------7--2--4--|--
D|-----------------------|--------------------5--|-----------------------|-----------------------|--
A|-----------------------|-----------------------|-----------------------|-----------------------|--
E|-----------------------|-----------------------|-----------------------|-----------------------|--



E|-----------------------|--------------------------------------------|--
B|--6--6--5--------------|-----5--6--5--------------5--6--5-----------|--
G|-----------7--5--4--5--|--5-----------7--5-----5-----------7--5--5--|--
D|-----------------------|--------------------5-----------------------|--
A|-----------------------|--------------------------------------------|--
E|-----------------------|--------------------------------------------|--



E|-----------------------|-----------------------|--
B|-----5--6--5-----------|--6--6--5--------------|--
G|--7-----------7--2--4--|-----------7--5--4--5--|--
D|-----------------------|-----------------------|--
A|-----------------------|-----------------------|--
E|-----------------------|-----------------------|--
http://www.guitartabcreator.com
Guitar Tab Creator is intended to store guitar tab created through the tool. It currently does not support in-line text editing. Any text you place in here will be lost. If you need to comment on your tab, please use the "Tab Notes" section located below.