Hallelujah Electric Guitar Tab

(/) Slide Up  (\) Slide Down  (h) Hammer On  (p) Pull Off  (b) Bend (r) Release (v) Vibrato
E|-----8-----8-----8-----8-----8-----8-----8-----8-----5-------------------------
B|--------6-----5-----------------6-----5-----------------8--6--5-----8-----8----
G|--5-----------------7-----5-----------------7-----5--------------7-----7-----7\
D|-------------------------------------------------------------------------------
A|-------------------------------------------------------------------------------
E|-------------------------------------------------------------------------------



E|-----8-----8-----8-----8-----8-----8-----8-----8-----5--------------------------
B|--------6-----5-----------------6-----5-----------------8--6--5-----8-----8-----
G|--5-----------------7-----5-----------------7-----5--------------7-----7-----7--
D|--------------------------------------------------------------------------------
A|--------------------------------------------------------------------------------
E|--------------------------------------------------------------------------------



E|-----8-----8-----8-----8-----8-----8-----8-----8--
B|--6-----5-----------5-----6-----5-----------5-----
G|--------------7-----------------------7-----------
D|--------------------------------------------------
A|--------------------------------------------------
E|--------------------------------------------------



E|-----8-----------8-----------------
B|--8-----6--5--5-----------8--8--8--
G|--------------------7--7-----------
D|-----------------------------------
A|-----------------------------------
E|-----------------------------------



E|-----------------------------------------------
B|--------5--8--6--5--------------5--8--6--5--6--
G|--5--7--------------7--5--5--7-----------------
D|-----------------------------------------------
A|-----------------------------------------------
E|-----------------------------------------------



E|-----------------------------------------------------------------------------------
B|-----------------------------------------------------------------------------------
G|--------4--7--5--4--5--------4--5--5--------4--7--5--4--5--5--4-----4--5--5--4--5--
D|--5--5-----------------5--7-----------5--5-----------------------7-----------------
A|-----------------------------------------------------------------------------------
E|-----------------------------------------------------------------------------------
http://www.guitartabcreator.com
Guitar Tab Creator is intended to store guitar tab created through the tool. It currently does not support in-line text editing. Any text you place in here will be lost. If you need to comment on your tab, please use the "Tab Notes" section located below.