Exercício em terças - posição E

(/) Slide Up  (\) Slide Down  (h) Hammer On  (p) Pull Off  (b) Bend (r) Release (v) Vibrato

Stave 1:

E|-----------------------------------------------------------------------4-----5--4--7--5--
B|-----------------------------------------------------------5-----7--5-----7--------------
G|-----------------------------------------4-----6--4--7--6-----7--------------------------
D|-----------------------4-----6--4--7--6-----7--------------------------------------------
A|-----4-----5--4--7--5-----7--------------------------------------------------------------
E|--5-----7--------------------------------------------------------------------------------

Stave 2:

E|-----4--------------------------------------------------------------------------------
B|--7-----5--7-----5--------------------------------------------------------------------
G|--------------7-----6--7--4--6-----4--------------------------------------------------
D|--------------------------------7-----6--7--4--6-----4--------------------------------
A|--------------------------------------------------7-----5--7--4--5-----4--------------
E|--------------------------------------------------------------------7-----5--7--4--5--

http://www.guitartabcreator.com
Guitar Tab Creator is intended to store guitar tab created through the tool. It currently does not support in-line text editing. Any text you place in here will be lost. If you need to comment on your tab, please use the "Tab Notes" section located below.