Venus

(/) Slide Up  (\) Slide Down  (h) Hammer On  (p) Pull Off  (b) Bend (r) Release (v) Vibrato


E|------------------------------------------------------------------------------------------
B|------------------------------------------------------------------------------------------
G|------------------------------------------------------------------------------------------
D|---7-9---7---5-5-----------7-9---7---5---------------7-9---7---5-5-----------------7-9-9--
A|-7-5-7-5-5-5-3-3-3-3-3---7-5-7-5-5-5-3-2-2h3-3p2---7-5-7-5-5-5-3-3-3-3-3---2--2-2--5-7-7--
E|-5-----3---3-----1-1-1---5-----3---3---------------5-----3---3-----1-1-1---0--0-0---------



E|-------
B|-------
G|-7-5-4-
D|-------
A|-5-3-2-
E|-------



E|---------------------------------------------------------------------------------
B|---------------------------------------5-7-7-7-----------------------------------
G|---------------------------------------5-7-7-7-----------------------------------
D|-----------5-5h7---------2---------------------------------------5-5h7---------2-
A|-7-5h7-5h7-------5-5-------3---5h7-5h7----------5-5-5--7-5h7-5h7-------5-5-------
E|-5-------------------3h5-----5------------------3-3-3--5-------------------3h5---



E|------------------------------------
B|------------------------------------
G|---5h7p5p4-4-5-4--------------------
D|-----------------5h7-5--------------
A|-3---------------------7--7-5h7-5/3-
E|------------------------------------



E|-------------------------------------------------------
B|-----5-------------------------------------------------
G|-----5-------5-7------5h7p5p4-4-5-4--------------------
D|-----7-------7-7--------------------5h7-5--------------
A|-----7-------7-5--------------------------7--7-5h7-5\3-
E|-5-5-5---5-5-5-5---------------------------------------



E|----------------------------------------------------------------
B|----------------------------------------------------------------
G|----------------------------------------------------------------
D|-10-10-10-10-12--7-7-----------5\3-5-5-5-------5-5-5-------5--5-
A|-8--8--8--8--10--5-5-7-7-5-7-8-----3-3-3-3-3-3-3-3-3-3-3-3-3--3-
E|---------------------5-5-----------------1-1-1-------1-1-1------



E|--------------------------------------------------------
B|----------------------------------2-5-5-5-7-7-2-2-5-5---
G|----------------------------------2-5---5-7-7-2-2-5-5---
D|--------------------------12----------------------------
A|-7--7-7--10--12--12-12-12----12-----------------------3-
E|-5--5-5--8---10--10-10-10-----------------------------1-



E|-------0---------------------------------------------------------
B|-------0---------------------------------------------------------
G|-------0---------------------------------------------------------
D|---2---------3---2-----5---3---5---7---9-9--12---7-7-----5-5-----
A|-----3---------------------------------7-7--10-7-5-5-5-5-3-3-3-3-
E|-0---------1---1-----3---3---3---3-------------5-----3-3-----1-1-



E|--------------------------------------------------------------------------------
B|--------------------------------------------------------------------------------
G|--------------------------------------------------------------------------------
D|--------------------------------------------------------------------------------
A|-7---7-7-7-7---7--7--7---7-7-7-7-7----5-5---5--5---5-5-5-5--5-5---5-5-5-5-5-5-7-
E|-5---5-5-5-5---5--5--5---5-5-5-5-5----3-3---3--3---3-3-3-3--3-3---3-3-3-3-3-3-5-
http://www.guitartabcreator.com
Guitar Tab Creator is intended to store guitar tab created through the tool. It currently does not support in-line text editing. Any text you place in here will be lost. If you need to comment on your tab, please use the "Tab Notes" section located below.