They Called Me "The Gun"

(/) Slide Up  (\) Slide Down  (h) Hammer On  (p) Pull Off  (b) Bend (r) Release (v) Vibrato

E|--------------------------------------------------------------------------------
B|--------------------------------------------------------------------------------
G|--------7h9---------------------------------------------------------------------
D|---------------------------------------7h9--------------------------------------
A|--------------------------------------------------------------------------------
E|--7--7-------7--7--7----7--7--7--7--7-------7----7----7--7--7----7--7--7--7--7--



E|----------5--------------------3--3--3--3-----------------------------------------------
B|----------5--------------------3--3--3--3-----------------------------------------------
G|----------6---------------4----4--4--4--4--2----2--2--2--2--2--2----2----2--2--2--2--2--
D|----------7-------7-------5----5--5--5--5--4----4--4--4--4--4--4----4----4--4--4--4--4--
A|----------7----7--7-------5----5--5--5--5--4----4--4--4--4--4--4----4----4--4--4--4--4--
E|--7\5--5--5----5--5\3--3--3----3--3--3--3--2----2--2--2--2--2--2----2----2--2--2--2--2--



E|--------7--------------7---------------------7-----7----------------------------
B|--------7--------------7--7------------------7-----7----------------------------
G|--------7--------------7--9p7----------------7--7--7--7----7--7-----------------
D|--------9-----9--9-------------9----------------9-----9----9--9--5--5--4--4--4--
A|--------9--9--9--9--9------------------9--9-----9-----9----9--9--5--5--4--4--4--
E|--7--7--7--7--7--7--7-------------7----7--7----------------7--7--3--3--2--2--2--



E|--------7--------------5--------
B|--------7--------------5--------
G|--------7--------------6--------
D|--------9--------------7--------
A|--------9--------------7--------
E|--7--7--7--------5--5--5--------



E|----------------3--
B|----------------3--
G|--7------9------4--
D|--7------9------5--
A|--5------7------5--
E|--5------7------3--



E|--5----------3----------
B|--5----------3----------
G|--6----------4----------
D|--7----------5----------
A|--7----------5----------
E|--5----------3----------



E|-------------------------------------------------------------
B|-------------------------------------------------------------
G|-------------7-------------7---7-9-------------7-9-7---------
D|-------9-7-9---9-------------------------9-7-9-7-9-7---------
A|-----------------------7-9---9-----------------------5-5-4-4-
E|-7-7-7-----------7-7-7-------------7-7-7-------------3-3-2-2-



E|-------------------------------------------------------------
B|-------------------------------------------------------------
G|-------------------------------------------------------------
D|-------------7-------------7---7/9-------------7-9-7---------
A|-------9-7-9---9-------------------------9-7-9-------5-5-4-4-
E|-7-7-7-----------7-7-7-5-7---7-----7-7-7-------------3-3-2-2-
http://www.guitartabcreator.com
Guitar Tab Creator is intended to store guitar tab created through the tool. It currently does not support in-line text editing. Any text you place in here will be lost. If you need to comment on your tab, please use the "Tab Notes" section located below.