Renegade

(/) Slide Up  (\) Slide Down  (h) Hammer On  (p) Pull Off  (b) Bend (r) Release (v) Vibrato

E|-0------------------------2------0-------0----0------------------------2------0-------2----
B|-0------------------------0------0-------1----0------------------------0------0-------4----
G|-0--0---------------------0------2-2-2-2-0----0--0---------------------0------2-2-2-2-4----
D|-2--2----------2----------1--1-1-1-1-1-1-2----2--2----------2----------1--1-1-1-1-1-1-4----
A|-2--2--2-2-2-2-2----2-2-2-2--2-2-0-0-0-0-3----2--2--2-2-2-2-2----2-2-2-2--2-2-0-0-0-0------
E|-0--0--0-0-0-0-0----0-0-0-2--2-2-2-2-2-2-3----0--0--0-0-0-0-0----0-0-0-2--2-2-2-2-2-2------



E|---------------------------------------------3--3-3-3-3-3-3--3--3-3-3-3-3----------------
B|---------------------------------------------5--5-5-5-5-5-5--5--5-5-5-5-5-4h5p4----------
G|---------5\4---------------------------------4--4-4-4-4-4-4--4--4-4-4-4-4-------5-4-2--4-
D|-----5-7-----5-5/7-------------------2-4-5---5--5-5-5-5-5-5--5--5-5-5-5-5----------------
A|---7---------------7--7\2-2-3-2--2-3-----------------------------------------------------
E|-0---------------------------------------------------------------------------------------



E|-7--5----------------------------7--5------------------------
B|-8--5-----------0--0-------------8--5-----------0--0---------
G|-9--5-----------0--0-------------9--5-----------0--0---------
D|-9--7--4h5p4----2--2------9-9-9--9--7--4h5p4----2--2-----7-9-
A|-7--7--------6--2--2----7-9-9-9--7--7--------6--2--2-----7-9-
E|-7--5-----------0--0--0-5-7-7-7--7--5-----------0--0--0--5-7-



E|-------------------------------------
B|-------------------------------------
G|-------------------------------------
D|----2--4------2--4------2-4-----2--4-
A|-3-------3-2-------3-2------3-2------
E|-------------------------------------



E|-------------------------------------------------
B|-------------------------------------------------
G|-------------------------------------------------
D|----2--4------2--4--------2--4-------2-4-4/7-7/9-
A|-3-------3-2-------3-2-3-------3-2-3-------------
E|-------------------------------------------------



E|---------------------------------------------
B|---------------------------------------------
G|---------------------------------------------
D|-------7----7--------------------------------
A|-------7----6--------------------------------
E|--0----5----5----3p0--0--0--0--7--8----0--7--
http://www.guitartabcreator.com
Guitar Tab Creator is intended to store guitar tab created through the tool. It currently does not support in-line text editing. Any text you place in here will be lost. If you need to comment on your tab, please use the "Tab Notes" section located below.