Madman

(/) Slide Up  (\) Slide Down  (h) Hammer On  (p) Pull Off  (b) Bend (r) Release (v) Vibrato


E|------------------------------------4--
B|-------------------4--4h5--4--------4--
G|------------------------------4-----4--
D|--------------4h6----------------6--6--
A|-----4--7------------------------------
E|--4--------4---------------------------



E|--------------------------------------------------------------------------------
B|--------------------------------------------------------------------------------
G|--------------------------------------------------------------------------------
D|-------4/9-----6--8-----------4/9-----6--8---------4/9-----6--8---------4----6--
A|--2---------7------------2---------7----------2---------7----------2----4----6--
E|--0----------------------0--------------------0--------------------0----2----4--



E|----------------------------------------------------------------------------------------
B|----------------------------------------------------------------------------------------
G|----------------------------------------------------------------------------------------
D|-------4/9-----6--8-------------4/9-----6--8----------4/9-----6--8-------8--6-----------
A|--2---------7--------2----2--2-------7----------2--2-------7-------------6--4-----6--4--
E|--0------------------0----0--0------------------0--0------------------0--------0--4--2--



E|------------------------------------------------------------------------------------------
B|------------------------------------------------------------------------------------------
G|----------------------------------------------------3-------------------------------------
D|--6----6--6--6--6--6----6----6--6--6--6--6--6--6----4----4/9-----6--8--4----------4/9-----
A|--6----6--6--6--6--6----4----4--4--4--4--4--4--4----4---------7--------2----4--4----------
E|--4----4--4--4--4--4----4----4--4--4--4--4--4--4----2-----------------------2--2----------



E|------------------------------
B|------------------------------
G|------------------------------
D|--------8---------------------
A|--6--7--7------6--4--2--4--6--
E|---------------4--2--0--2--4--



E|-------------------------------------
B|-------------------------------------
G|-------------------------------------
D|--13--13-----------------------------
A|--11--11--11--11--11--11--14--9--11--
E|----------9---0---9---0---12--7--9---



E|--------------------------------------------------------------------------------------
B|-------------------------4-------------4--6---------------------------4---------------
G|-------------------------4-------------4--6---------------------------4---------------
D|----------------------------6----6--6------------------------------------6------4--6--
A|--6--6----6--------6--6-----6----6--6----------6--6----6--------6--6-----6------2--4--
E|--4--4-------7--2--4--4-----4----4--4----------4--4-------7--2--4--4-----4------------



E|----------------------------------------------------------------------------------
B|-------------------------4--------------------------------------------------------
G|-------------------------4--------------------------------------------------------
D|----------------------------6----4h6p4p0------------------------------------------
A|--6--6----6--------6--6-----6-------------4--2----4--4----4--4--4----2----4-------
E|--4--4-------7--2--4--4-----4-------------2--0----2--2----2--2--2----0----2-------



E|------------------------------
B|------------------------------
G|------------------------------
D|--8----8--8-----6----4--4-----
A|--6----6--6--6--4----2--2--4--
E|-------------4-------------2--



E|----------------------------------------------------------------------
B|----------------------------------------------------------------------
G|----------------------------------------------------------------------
D|--9----9----9--9--9--9--9--9--9--9----8----8--8--8--8--8--8--8--8--8--
A|--7----7----7--7--7--7--7--7--7--7----6----6--6--6--6--6--6--6--6--6--
E|----------------------------------------------------------------------
http://www.guitartabcreator.com
Guitar Tab Creator is intended to store guitar tab created through the tool. It currently does not support in-line text editing. Any text you place in here will be lost. If you need to comment on your tab, please use the "Tab Notes" section located below.