Helix Solo

(/) Slide Up  (\) Slide Down  (h) Hammer On  (p) Pull Off  (b) Bend (r) Release (v) Vibrato


E|--------8h10p0-5h8p0-3h5p0-1h3-----------------3h5-----
B|-----10------------------------5h6-5--5-6-3--3-----3h5-
G|---9---------------------------------------------------
D|-7-----------------------------------------------------
A|-------------------------------------------------------
E|-------------------------------------------------------



E|---------------------------------------10-----------
B|-------------------5---6h8--------------------------
G|-----2-------------5-------7h9-7-9-7-7----7-7\5-5/7-
D|-2-3---3-2-----3/7---7------------------------------
A|-----------3p0--------------------------------------
E|----------------------------------------------------



E|-----7p5-8p5-----7p5-8p5-----7p5-8p5-----7p5-8p5-------
B|-6p5---------6p5---------6p5---------6p5---------5h6p5-
G|-------------------------------------------------------
D|-------------------------------------------------------
A|-------------------------------------------------------
E|-------------------------------------------------------



E|-5-7-8-7-------------12p10-13p10-15p10-13p10-12p10-13p10-
B|---------8/13-12--10-------------------------------------
G|---------------------------------------------------------
D|---------------------------------------------------------
A|---------------------------------------------------------
E|---------------------------------------------------------



E|--------------------10---------------------------
B|----------------8--------8h10--------------------
G|-------9h10p0-7---7----7------7-9--7-7-9-12-14---
D|----10-------------------------------------------
A|-12--------------------------------5-5-7-10-12---
E|-------------------------------------------------



E|---------------------------------------
B|------------------------------------17-
G|----12----7h9-9/10-9h10p9p7-9/16-16----
D|-------10------------------------------
A|-10------------------------------------
E|---------------------------------------
http://www.guitartabcreator.com
Guitar Tab Creator is intended to store guitar tab created through the tool. It currently does not support in-line text editing. Any text you place in here will be lost. If you need to comment on your tab, please use the "Tab Notes" section located below.