Helix

(/) Slide Up  (\) Slide Down  (h) Hammer On  (p) Pull Off  (b) Bend (r) Release (v) Vibrato


E|-----------------------------------5-----------5---------------------5---------5-----------
B|-----------1-------1--0------5--------------5-----5-----5------5------------5-----5--------
G|--------2-------2---------------5--------------------5------------5------------------5-----
D|-----2----------------------------------------------------------------------------------7--
A|--0----------------------------------------------------------------------------------------
E|-------------------------------------------------------------------------------------------



E|---------------------------------------------------------------------------------------------
B|-------------------10-----------------------13-----------------------10-----12-----13--------
G|--------------5/9----------------------5/9--9-------------------5/9------9------9------9-----
D|--7--7--7--7---------------7--7--7--7---------------7--7--7--7-------------------------------
A|---------------------------------------------------------------------------------------------
E|---------------------------------------------------------------------------------------------



E|-------------12--12--12--12--12--12--12--
B|--12-----10--10--10--10--10--10--10--10--
G|------9------9---9---9---9---9---9---9---
D|-----------------------------------------
A|-----------------------------------------
E|-----------------------------------------



E|--------------------------------------------------------------------------------
B|--------------------------------------------------------------------------------
G|--------------------------------------------------------------------------------
D|-----2---------------------------------------2-------------------------------5--
A|--------------3-----3--5-----5/7----------------------3-----3--5-----5--5/7-----
E|--5-----0--5-----5--------5-------7----0--5-----0--5-----5--------5-------------



E|-----------------------5-------------------------7-------------------------5-----
B|-----------------------6-------------------------8-------------------------6-----
G|-----------------------7-------------------------9-------------------------7-----
D|-----2-----------------7-------2-----------------9-------2-----------------7-----
A|--0--------0--3--0-----5----0--------0--3--0-----7----0--------0--3--0-----5-----
E|--------0-----------0--5----------0-----------0--7----------0-----------0--5-----



E|-----------------------7--3--
B|-----------------------8--3--
G|-----------------------9--4--
D|-----2-----------------9--5--
A|--0--------0--3--0-----7--5--
E|--------0-----------0--7--3--



E|-----5--7-----
B|-----6--8-----
G|-----7--9-----
D|--7--7--9--5--
A|--7--5--7--5--
E|--5--5--7--3--



E|--------------------------------------------
B|--------------------------------------------
G|---------------------------------10---------
D|---------------------------------10--10--9--
A|--------2--------5--7------------8---10--8--
E|--1--3--0--7--8------------------8---8---7--



E|--------------------------------------------------------
B|--------------------------------------------------------
G|--------------------------------------------------------
D|--------------------------------------------------------
A|--------2--2--------2--2--------2--2--------------5--7--
E|--1--3--0--0--1--3--0--0--1--3--0--0--1--3--7--8--------
http://www.guitartabcreator.com
Guitar Tab Creator is intended to store guitar tab created through the tool. It currently does not support in-line text editing. Any text you place in here will be lost. If you need to comment on your tab, please use the "Tab Notes" section located below.