Djinn

(/) Slide Up  (\) Slide Down  (h) Hammer On  (p) Pull Off  (b) Bend (r) Release (v) Vibrato


E|----------------------------
B|----------------------------
G|----------------------------
D|--9--9--9----9--5-----------
A|--8--8--8----7--3--7--7--7--
E|--7--7--7----------5--5--5--



E|----------------------------
B|-------------5--------------
G|-------------7--5--4--4--4--
D|--9--9--9-------------------
A|--8--8--8-------------------
E|--7--7--7-------------------



E|----------------------------------------
B|----------------------------------------
G|----------------------------------------
D|----------------------------------------
A|--7--10-----3-----2---------------------
E|--5--8---0--1--0--0--0----0--0--0----0--



E|--------5----3----7----7--
B|--------5----3----8----8--
G|--------5----4----9----9--
D|--------7----5----9----9--
A|--------7----5----7----7--
E|--5--5--5----3----7----7--
http://www.guitartabcreator.com
Guitar Tab Creator is intended to store guitar tab created through the tool. It currently does not support in-line text editing. Any text you place in here will be lost. If you need to comment on your tab, please use the "Tab Notes" section located below.