Dead Forever

(/) Slide Up  (\) Slide Down  (h) Hammer On  (p) Pull Off  (b) Bend (r) Release (v) Vibrato
E|-------------------------------------------------------------------
B|-3-------------3---------------------------------------------------
G|-2-------------2--------------------------------------5------------
D|-0-7h8p7p0-----0--------------------------------------5------------
A|-0---------3h5-0--0--0-0-0---------------------3------3--------3-3-
E|-0-------------0--0--0-0-0--3h5p3p0--0-3-------3------3--------3-3-



E|-------------------------------------------------------------
B|-3-----------------------------------------------------------
G|-2-----------------------------------------------------------
D|-0-7h8p7p0--------------7h8p7p0------------------------------
A|-0----------0--0---0--0----------0-0-3-5------3------10h12\5-
E|-0----------0--0---0--0----------0-0-3-5------3------------3-



E|--------------------------------------------------------------------------
B|--------------------------------------------------------------------------
G|--------------------------------------------------------------------------
D|---7h8p7p0----------7h8p7p0----------------7h8p7p0------------------2h3p0-
A|-5---------8-10-5-5--------------------3-5---------8-10-5-3-3-1h3p0-------
E|-5---------8-10-5-5---------8h10-7-7h8-3-5---------8-10-5-3-3-------------



E|------------5--5------------------------------------------------------
B|------------6--6------------------------------------------------------
G|------------7--7--5----------------------5-5--7-7--10-----------------
D|---7h8p7p0--7--7--5---------------------------------------------------
A|-5----------5--5--3--------------3-5-----3-3--5-5--8------------------
E|-5----------5--5--3-----3h5p3p0--3-5-------------------7h8p7p0--0-3---



E|------------------------------------------------------------------------
B|------------------------------------------------------------------------
G|-2-----------------10---2-----------------10-12---2---------------------
D|-0-7h8p7p0---------10---0-7h8p7p0---------10-12---0-7h8p7p0-------------
A|-0----------0-0-0--8----0----------0-0-0--8--10---0----------0-0-0--3-3-
E|-0----------0-0-0-------0----------0-0-0----------0----------0-0-0--3-3-



E|------------------------------------------------------
B|------------------------------------------------------
G|-2----------------2------------5-5--------------------
D|-0-7h8p7p0--------0-0-7h8p7p0--5-5--------------------
A|-0-----------3h5--0-0----------3-3------3-3-----------
E|-0----------------0-0-------------------3-3---------8-



E|-----------------------------------------------------
B|-11--11--11------------------------------------------
G|-10--9---9-------------------------------------------
D|-8---8---10---2--2--2----5-5-5-----8-8-8---8---------
A|-8---8---8----1--1--3----5-5-5-----5-5-5---5----8-10-
E|-8---8---8----3--2--2----5-5-5-----5-5-5---5----8-10-
http://www.guitartabcreator.com
Guitar Tab Creator is intended to store guitar tab created through the tool. It currently does not support in-line text editing. Any text you place in here will be lost. If you need to comment on your tab, please use the "Tab Notes" section located below.