Arlina

(/) Slide Up  (\) Slide Down  (h) Hammer On  (p) Pull Off  (b) Bend (r) Release (v) Vibrato


E|----------------------------------
B|----------------------------------
G|----------------------------------
D|----------------------------------
A|--5--5--5-----6--3--5--8--5h6--3--
E|--3--------3-------------------1--



E|-----------------------------------------------------------------------------------------------
B|-----------------------------------------------------------------------------------------------
G|-----------------------------------------------------------------------------------------------
D|----------8-----------8-------8-------7--------7-----7-----5--------5-----5--------5-----------
A|--10--10--10--10--10--10--10--10--10--8--8--8--8--8--8--8--6--6--6--6--6--6--6--6--6--6--6-----
E|-----------------------------------------------------------------------------------------------



E|-----------------------------------------------------------
B|-----------------------------------------------------------
G|-----------------------------------------------------------
D|--5--5------------5--------5-----5----5--5--5--------------
A|--6--6------------6--6--6--6--6--6----6--6--6--5--8--8--3--
E|-----------------------------------------------3--6--6--1--



E|---------------------------------------------------------------------------------------------
B|---------------------------------------------------------------------------------------------
G|---------------------------------------------------------------------------------------------
D|---------------------------------------------------------------------------------------------
A|--5--5--8--8--3--3--5----5--5--5--8--3--3--5--5--5--5--8--8--3--3--5----5--5--5--8--3--3--5--
E|--3--3--6--6--1--1--3----3--3--3--6--1--1--3--3--3--3--6--6--1--1--3----3--3--3--6--1--1--3--



E|--3----5----3--
B|--4----6----3--
G|--5----7----3--
D|--5----7----5--
A|--3----5----5--
E|--3----5----3--



E|---------------------------------------
B|---------------------------------------
G|---------------------------------------
D|---------------------------------------
A|--5----5----5--8--8--3--3--3--5--5--3--
E|--3----3----3--6--6--1--1--1--3--3--1--



E|----------------------------------------
B|----------------------------------------
G|----------------------------------------
D|-----------------------------1-----0h3--
A|--5----5----5--8--8---------------------
E|--3----3----3--6--6--1--1h3-----3-------



E|--------------------------------------------------------
B|--------------------------------------------------------
G|--5--8--------------------------------------------------
D|--5--8--------------------------------------------------
A|--3--6--5--5--5h6p5-----5--5--5h6p5-----5--5--5h6p5-----
E|--3--6--3--3---------3--3--3---------3--3--3---------3--



E|--------------------------------------------------------------
B|--------------------------------------------------------------
G|--5--8--------------------------------------------------5--8--
D|--5--8--7--7------------7--7------------7--7------------5--8--
A|--3--6--5--5--5h6p5--5--5--5--5h6p5--5--5--5--5h6p5--5--3--6--
E|--3--6--------------------------------------------------3--6--



E|-------------------------------------------------------
B|-------------------------------------------------------
G|-------------------------------------------------------
D|-------------------------------------------------------
A|--------------------------5----5--5--3--3--3--5--5--3--
E|--3--3--3--3--3--3--3--3--3----3--3--1--1--1--3--3--1--



E|--------------------------------------------------------
B|--------------------------------------------------------
G|--------------------------------------------------------
D|---------------------------------------------1-----0h3--
A|--------------------------5----5--5---------------------
E|--3--3--3--3--3--3--3--3--3----3--3--1--1h3-----3-------
http://www.guitartabcreator.com
Guitar Tab Creator is intended to store guitar tab created through the tool. It currently does not support in-line text editing. Any text you place in here will be lost. If you need to comment on your tab, please use the "Tab Notes" section located below.