All My Life

(/) Slide Up  (\) Slide Down  (h) Hammer On  (p) Pull Off  (b) Bend (r) Release (v) Vibrato

E|--7--7--7--7--7--7--7--7--7--7--7--7--5--5--5--5--5--5--4--4--3--3--
B|--7--7--7--7--7--7--7--7--7--7--7--7--5--5--5--5--5--5--4--4--3--3--
G|-----------------------------7--------------------------------------
D|--7--7--7--7--7--7--7--7--7--7--7--7--5--5--5--5--5--5--4--4--3--3--
A|--6--6--6--6--6--6--6--6--6--6--6--6--4--4--4--4--4--4--3--3--2--2--
E|--7--7--7--7--7--7--7--7--7--7--7--7--5--5--5--5--5--5--4--4--3--3--



E|--------------------------------------------------------------------
B|--------------------------------------------------------------------
G|--------------------------------------------------------------------
D|--------------------------------------------------------------------
A|-----2--2--2--2--2-----2--2--2--2--2-------7---------5-----5-----5--
E|--5-----------------5-----------------5---------5-------4-----3-----



E|--
B|--
G|--
D|--
A|--
E|--
http://www.guitartabcreator.com
Guitar Tab Creator is intended to store guitar tab created through the tool. It currently does not support in-line text editing. Any text you place in here will be lost. If you need to comment on your tab, please use the "Tab Notes" section located below.