Rock Discipline 2

(/) Slide Up  (\) Slide Down  (h) Hammer On  (p) Pull Off  (b) Bend (r) Release (v) Vibrato
E|--8--8---
B|--5--8---
G|--6--9---
D|--7--10--
A|--7--10--
E|--5--8---



E|--12--9---
B|--12--9---
G|--13--10--
D|--14--11--
A|--14--11--
E|--12--9---



E|--7--
B|--7--
G|--8--
D|--9--
A|--9--
E|--7--



E|--2-----
B|--2-----
G|--3-----
D|--4-----
A|--4-----
E|--2-----



E|-----------------------5--8-----------------------
B|-----------------5--------------5-----------------
G|-----------6--------6--------6--------6-----------
D|-----7--------7--------------------7--------7-----
A|--------7--------------------------------7--------
E|--5--------------------------------------------5--



E|--------------------------8--11--------------------------
B|--------------------8---------------8--------------------
G|-------------9---------9---------9---------9-------------
D|-----10---------10---------------------10---------10-----
A|---------10-----------------------------------10---------
E|--8---------------------------------------------------8--



E|------------------------------12--15------------------------------
B|----------------------12------------------12----------------------
G|--------------13----------13----------13----------13--------------
D|------14----------14--------------------------14----------14------
A|----------14------------------------------------------14----------
E|--12----------------------------------------------------------12--



E|----------------------------9--12----------------------------
B|---------------------9-----------------9---------------------
G|-------------10---------10---------10---------10-------------
D|-----11----------11-----------------------11----------11-----
A|---------11---------------------------------------11---------
E|--9-------------------------------------------------------9--



E|-----------------------7--10-----------------------
B|-----------------7---------------7-----------------
G|-----------8--------8---------8--------8-----------
D|-----9--------9---------------------9--------9-----
A|--------9---------------------------------9--------
E|--7---------------------------------------------7--



E|-----------------------2--5-----------------------
B|-----------------2--------------2-----------------
G|-----------3--------3--------3--------3-----------
D|-----4--------4--------------------4--------4-----
A|--------4--------------------------------4--------
E|--2--------------------------------------------2--
http://www.guitartabcreator.com
Guitar Tab Creator is intended to store guitar tab created through the tool. It currently does not support in-line text editing. Any text you place in here will be lost. If you need to comment on your tab, please use the "Tab Notes" section located below.