eim

(/) Slide Up  (\) Slide Down  (h) Hammer On  (p) Pull Off  (b) Bend (r) Release (v) Vibrato


E|--16--16--16p14--16--16--16p14--16--
B|------------------------------------
G|------------------------------------
D|------------------------------------
A|------------------------------------
E|------------------------------------



E|--16--16h17--16--14---------14-------------
B|---------------------17b18------17b18--17--
G|-------------------------------------------
D|-------------------------------------------
A|-------------------------------------------
E|-------------------------------------------



E|---------------------
B|--14--14--14\12--12--
G|---------------------
D|---------------------
A|---------------------
E|---------------------



E|-----------------------------
B|--12p10--10--10\9--9--10--9--
G|-----------------------------
D|-----------------------------
A|-----------------------------
E|-----------------------------



E|---------------------------------------------------------
B|-----9---------------------------------------------------
G|-----------6-----9b11-----9-----6-----9-----9-----11-----
D|---------------------------------------------------------
A|---------------------------------------------------------
E|---------------------------------------------------------
http://www.guitartabcreator.com
Guitar Tab Creator is intended to store guitar tab created through the tool. It currently does not support in-line text editing. Any text you place in here will be lost. If you need to comment on your tab, please use the "Tab Notes" section located below.