slacks

(/) Slide Up  (\) Slide Down  (h) Hammer On  (p) Pull Off  (b) Bend (r) Release (v) Vibrato


E|---------------------------------------------------
B|--------------------------------------7--10--9-----
G|-------6h7-------6h7-------6h7--9h11---------------
D|--7h9-------7h9-------7h9--------------------------
A|---------------------------------------------------
E|---------------------------------------------------

second guitar

E|----------------------
B|----------------------
G|--9-----9-----9/3-----x4
D|--7-----7-----7-------
A|----------------------
E|----------------------
http://www.guitartabcreator.com
Guitar Tab Creator is intended to store guitar tab created through the tool. It currently does not support in-line text editing. Any text you place in here will be lost. If you need to comment on your tab, please use the "Tab Notes" section located below.