country song second party E G C

(/) Slide Up  (\) Slide Down  (h) Hammer On  (p) Pull Off  (b) Bend (r) Release (v) Vibrato


E|------------------------------------
B|------------------------------------
G|-------4--7/9--7--------------------
D|--5h7-------------9--7--9--7--5--5--
A|------------------------------------
E|------------------------------------



E|-------------------------------------------------------
B|--------------10--------8--------12--------8--------8--
G|--9--9--9--9------9--9-----9--9------9--9-----9--9-----
D|-------------------------------------------------------
A|-------------------------------------------------------
E|-------------------------------------------------------
http://www.guitartabcreator.com
Guitar Tab Creator is intended to store guitar tab created through the tool. It currently does not support in-line text editing. Any text you place in here will be lost. If you need to comment on your tab, please use the "Tab Notes" section located below.