Angels & Airwaves - Sirens

(/) Slide Up  (\) Slide Down  (h) Hammer On  (p) Pull Off  (b) Bend (r) Release (v) Vibrato

E|-------------------------------------------------
B|-----------------------------------------7--7----
G|----9--7------9--7------9--7----------7--7--7----
D|----7--7------7--7------7--7---------------------
A|-------------------------------------------------
E|-------------------------------------------------



E|----------------------------------------
B|----------------------------------------
G|----11--11--11/12--12--12--12/14--14----
D|----11--11--11-12--12--12--12-14--14----
A|----9---9---9--10--10--10--10-12--12----
E|----------------------------------------



E|----------------------------------------------------------------------------------
B|----------------------------------------------------------------------5-----7--7--
G|--------7-----6h7-----2-------7-----6h7-----0-------0---------7-------------------
D|--0--0-----0-------0-------0-----0-------0-------0-------4h5-----4h5-----0--------
A|----------------------------------------------------------------------------------
E|----------------------------------------------------------------------------------



E|----------------------------------------------------------------------------------
B|----------------------------------------------------------------------5-----------
G|--------7-----6h7-----2-------7-----6h7-----0-------0---------7-------------7--7--
D|--0--0-----0-------0-------0-----0-------0-------0-------4h5-----4h5-----0--------
A|----------------------------------------------------------------------------------
E|----------------------------------------------------------------------------------



E|----------------------------------------------------------------------
B|----------------------------------------------------------------------
G|--14----11----9----7--7--7--9--7-9--11--7----11--12-11--9----9-11--7--
D|----------------------------------------------------------------------
A|--12----9-----7----5--5--5--7--5/7--9---5----9---10\9---7----7/9---5--
E|----------------------------------------------------------------------
http://www.guitartabcreator.com
Guitar Tab Creator is intended to store guitar tab created through the tool. It currently does not support in-line text editing. Any text you place in here will be lost. If you need to comment on your tab, please use the "Tab Notes" section located below.