Summertime - Miles Davis

(/) Slide Up  (\) Slide Down  (h) Hammer On  (p) Pull Off  (b) Bend (r) Release (v) Vibrato


E|--------------|--------------|--------------|--------------|--
B|--------------|--------------|--------------|--------------|--
G|-----------1--|--3--1--------|--------------|--------------|--
D|--------3-----|--------3-----|--------------|--------3--2--|--
A|--1--4--------|-----------4--|--1--------0--|--1--4--------|--
E|--------------|--------------|-----1--4-----|--------------|--



E|--------------|-----------------|-----------------|--------------|--
B|--------------|-----------------|-----------------|--------------|--
G|--------------|--------3-----3--|--------3-----3--|--------------|--
D|--------------|--1--4-----4-----|--1--4-----4-----|--------------|--
A|--1--------0--|-----------------|-----------------|--1--------0--|--
E|-----1--4-----|-----------------|-----------------|-----1--4-----|--



E|--------------|-----------------|-----------------|----------------|--
B|--------------|-----------------|-----------------|----------------|--
G|--------------|-----------------|-----------------|----------------|--
D|--------3--2--|--3--------------|--3--------------|----------------|--
A|--1--4--------|-----3--0--3--0--|-----3--0--3--0--|----------------|--
E|--------------|-----------------|-----------------|----------------|--



E|--------------|--------------|--------------|-----------------|--
B|--------------|--------------|--------------|-----------------|--
G|-----------1--|--3--1--------|--------------|--------3-----3--|--
D|--------3-----|--------3-----|--------------|--1--4-----4-----|--
A|--1--4--------|-----------4--|--1--------0--|-----------------|--
E|--------------|--------------|-----1--4-----|-----------------|--



E|-----------------|-----------------|-----------------|-----------------|--
B|-----------------|-----------------|-----------------|-----------------|--
G|-----------------|-----------------|-----------------|-----------------|--
D|--------3-----3--|--------3-----3--|-----1--4--1--4--|--3--------------|--
A|--1--4-----4-----|--1--4-----4-----|--3--------------|-----3--0--3--0--|--
E|-----------------|-----------------|-----------------|-----------------|--



E|--------------|--------------|--------------|-----------------|--
B|--------------|--------------|--------------|-----------------|--
G|-----------1--|--3--1--------|--------------|-----------------|--
D|--------3-----|--------3-----|--------------|--3--------------|--
A|--1--4--------|-----------4--|--1--------0--|-----3--0--3--0--|--
E|--------------|--------------|-----1--4-----|-----------------|--



E|--------------|--------------|--------------|-----------------|--
B|--------------|--------------|--------------|-----------------|--
G|-----------1--|--3--1--------|--------------|-----------------|--
D|--------3-----|--------3-----|--------------|--3--------------|--
A|--1--4--------|-----------4--|--1--------0--|-----3--0--3--0--|--
E|--------------|--------------|-----1--4-----|-----------------|--



E|-----------------|--------------|-----------------|-----------------|--
B|-----------------|--------------|-----------------|-----------------|--
G|-----------------|--------------|--------3-----3--|--------3-----3--|--
D|-----1--4--1--4--|--------3--2--|--1--4-----4-----|--1--4-----4-----|--
A|--3--------------|--1--4--------|-----------------|-----------------|--
E|-----------------|--------------|-----------------|-----------------|--



E|--------------|--------------|--------------|--------------|--
B|--------------|--------------|--------------|--------------|--
G|-----------1--|--3--1--------|--------------|--------------|--
D|--------3-----|--------3-----|--------------|--------3--2--|--
A|--1--4--------|-----------4--|--1--------0--|--1--4--------|--
E|--------------|--------------|-----1--4-----|--------------|--



E|--------------|-----------------|-----------------|------------|--
B|--------------|-----------------|-----------------|------------|--
G|--------------|-----------------|-----------------|------------|--
D|--------------|-----1--4--1--4--|-----1--4--1--4--|------------|--
A|--1--------0--|--3--------------|--3--------------|------------|--
E|-----1--4-----|-----------------|-----------------|------------|--



E|-------------|--------------|--------------|-----------------|-----------------|--
B|-------------|--------------|--------------|-----------------|-----------------|--
G|-------------|--3--1--------|--------------|-----------------|-----------------|--
D|--------3----|--------3-----|--------------|--3-----------3--|--3--------------|--
A|--0--3-------|-----------4--|--1--------0--|-----3--0--3-----|-----3--0--3--0--|--
E|-------------|--------------|-----1--4-----|-----------------|-----------------|--



E|-----------------|-----------------|-----------------|--------------|--
B|-----------------|-----------------|-----------------|--------------|--
G|--------3-----3--|-----------------|--------3-----3--|--------3--3--|--
D|--1--4-----4-----|--------3-----3--|--1--4-----4-----|--1--4--------|--
A|-----------------|--1--4-----4-----|-----------------|--------------|--
E|-----------------|-----------------|-----------------|--------------|--



E|-----------------|------------|-----------------|-----------------|--------------|--
B|-----------------|------------|-----------------|-----------------|--------------|--
G|-----------------|------------|-----------------|-----------------|--------------|--
D|--3--------------|------------|-----1--4--1--4--|--------3-----3--|--------2--3--|--
A|-----3--0--3--0--|------------|--3--------------|--0--3-----3-----|--0--4--------|--
E|-----------------|------------|-----------------|-----------------|--------------|--
http://www.guitartabcreator.com
Guitar Tab Creator is intended to store guitar tab created through the tool. It currently does not support in-line text editing. Any text you place in here will be lost. If you need to comment on your tab, please use the "Tab Notes" section located below.