Whipping Post Guitar 2

(/) Slide Up  (\) Slide Down  (h) Hammer On  (p) Pull Off  (b) Bend (r) Release (v) Vibrato

Stave 1:

E|--8----------------------8----------------------
B|-----10--8------------------10--8---------------
G|------------9--11--9---------------9--11--9-----
D|----------------------7----------------------7--
A|------------------------------------------------
E|------------------------------------------------

Stave 2:

E|--------------------------------------------------------------
B|--------------------------------------------------------------
G|--7b8--7--5--7b8--7--5--7p5-----7b8--7--5--7b8--7--5--7p5-----
D|-----------------------------7-----------------------------7--
A|--------------------------------------------------------------
E|--------------------------------------------------------------

Stave 3:

E|-----------------------------------------------
B|-----7--8--10p8--7--------7--8--10p8--7--------
G|--9-----------------7--9-----------------7--9--
D|-----------------------------------------------
A|-----------------------------------------------
E|-----------------------------------------------

Stave 4:

E|----------------------------------
B|----------------------------------
G|----------------------------7--5--
D|--7p5--7--7p5--7--7p5--7p5--------
A|----------------------------------
E|----------------------------------

Stave 5:

E|-----------------------------------------12--14--15--16--17--
B|-----------------------------12--13--15----------------------
G|--2--4--5--7--9--11--12--14----------------------------------
D|-------------------------------------------------------------
A|-------------------------------------------------------------
E|-------------------------------------------------------------

http://www.guitartabcreator.com
Guitar Tab Creator is intended to store guitar tab created through the tool. It currently does not support in-line text editing. Any text you place in here will be lost. If you need to comment on your tab, please use the "Tab Notes" section located below.