Whipping Post

(/) Slide Up  (\) Slide Down  (h) Hammer On  (p) Pull Off  (b) Bend (r) Release (v) Vibrato

Stave 1:

E|--------------------------------------------
B|--------------------------------------------
G|--------------------------------------------
D|--------------------------------------------
A|--------------------------------------5--3--
E|--5--3--5--3--5--5--3--5--3--5--5--3--------

Stave 2:

E|--5-----------------7--------------8-------------------7--------------
B|-----5-----------------7--------------8-------------------7-----------
G|--------5--6--------------7--------------8--9----------------7--------
D|--------------7--------------9-----------------10---------------9-----
A|-----------------7--------------9------------------10--------------9--
E|----------------------------------------------------------------------

Stave 3:

E|--5--------------------
B|-----8--5--------------
G|-----------5--7--5-----
D|--------------------7--
A|-----------------------
E|-----------------------

Stave 4:

E|--5-----------------
B|-----8--5-----------
G|-----------5--7--5--
D|--------------------
A|--------------------
E|--------------------

Stave 5:

E|--------------------------
B|--15b13--15b13--15p13-----
G|-----------------------14b
D|--------------------------
A|--------------------------
E|--------------------------

Stave 6:

E|---------------------------------------------
B|---------------------------------------------
G|-----4--5--7p5--4--------4--5--7p5--4--------
D|--7----------------5--7----------------5--7--
A|---------------------------------------------
E|---------------------------------------------

Stave 7:

E|-----------------------------------------12--14--15--16--17--
B|-----------------------------12--13--15----------------------
G|--2--4--5--7--9--11--12--14----------------------------------
D|-------------------------------------------------------------
A|-------------------------------------------------------------
E|-------------------------------------------------------------

http://www.guitartabcreator.com
Guitar Tab Creator is intended to store guitar tab created through the tool. It currently does not support in-line text editing. Any text you place in here will be lost. If you need to comment on your tab, please use the "Tab Notes" section located below.