Pentatonic blues licks

(/) Slide Up  (\) Slide Down  (h) Hammer On  (p) Pull Off  (b) Bend (r) Release (v) Vibrato

Stave 1:

E|---------------------------------
B|-----------5b6-------------------
G|--7--5----------7--5--------5h7--
D|--------7-------------7--5-------
A|---------------------------------
E|---------------------------------

Stave 2:

E|----------5-------------
B|-------5----------------
G|--7b8--------7b8--7--5--
D|------------------------
A|------------------------
E|------------------------

Stave 3:

E|-------------------------------
B|--5/7--5--7-----7--------------
G|-------------5-----5--7--5--7--
D|-------------------------------
A|-------------------------------
E|-------------------------------

http://www.guitartabcreator.com
Guitar Tab Creator is intended to store guitar tab created through the tool. It currently does not support in-line text editing. Any text you place in here will be lost. If you need to comment on your tab, please use the "Tab Notes" section located below.