Solo Section

(/) Slide Up  (\) Slide Down  (h) Hammer On  (p) Pull Off  (b) Bend (r) Release (v) Vibrato
E|------------------------------------------------------------------------
B|-----------6--6--6--------------6--6--6-----------6--6--6---------------
G|--5--5--7-----------5--5--5--7-----------5--5--7-----------4--3v--7--6--
D|------------------------------------------------------------------------
A|------------------------------------------------------------------------
E|------------------------------------------------------------------------



E|---------------------------------------------------------------------------
B|---------------------------------------------------------------------------
G|-----------6--6--6--------------6--6--6-----------6--6--6------------------
D|--5--5--7-----------5--5--5--7-----------5--5--7-----------4--3v--7--6-----
A|------------------------------------------------------------------------0--
E|------------------------------------------------------------------------0--
http://www.guitartabcreator.com
Guitar Tab Creator is intended to store guitar tab created through the tool. It currently does not support in-line text editing. Any text you place in here will be lost. If you need to comment on your tab, please use the "Tab Notes" section located below.