Solo

(/) Slide Up  (\) Slide Down  (h) Hammer On  (p) Pull Off  (b) Bend (r) Release (v) Vibrato

E|--------------------------------------------------
B|--------------------------------------------------
G|--------------------------------------------------
D|--------------------------------------------------
A|-----6v--11--11--10--10--11--10--11v--14--14--13--
E|--0-----------------------------------------------



E|--------------------------
B|--------------------------
G|--------------------------
D|--11--11--11--11--11--11--
A|--9---9---9---9---9---9---
E|--------------------------
http://www.guitartabcreator.com
Guitar Tab Creator is intended to store guitar tab created through the tool. It currently does not support in-line text editing. Any text you place in here will be lost. If you need to comment on your tab, please use the "Tab Notes" section located below.