Guitar Assortment

(/) Slide Up  (\) Slide Down  (h) Hammer On  (p) Pull Off  (b) Bend (r) Release (v) Vibrato
E|-----------------------------------------------------------------------------------------------
B|-----------------------------------------------------------------------------------------------
G|--------5-----------5-----------3-----------------------3-----------4-----------3--------------
D|-----5-----5-----5-----5-----3-----3--5--------------3-----3-----4-----4-----3-----3-----------
A|--3-----------------------0--------------4--3--4--0-----------0-----------0-----------3--3--4--
E|--------------4--------------------------------------------------------------------------------



E|--------------------------------------------------------------------------------
B|--------------------------------------------------------------------------------
G|--------------------------------------------------------------------------------
D|-----5-----5-----5--4--6-----5-----5-----5--4--6-----5-----5-----5--4--6--------
A|--3-----3-----3-----------3-----3-----3-----------3-----3-----3-----------------
E|--------------------------------------------------------------------------2v--7b



E|-----------------------------------------------------------------------------
B|-----------------------------------------------------------------------------
G|-----------------------------------------------------------------------------
D|-----------------------------------------------------------------------------
A|--5--5--5--5--5--5--4--5--7--7--7--7--7--7--5--5--5--5--5--5--4--5--7--7--5--
E|--3--3--3--3--3--3--------5--5--5--5--5--5--3--3--3--3--3--3--------5--5--3--
http://www.guitartabcreator.com
Guitar Tab Creator is intended to store guitar tab created through the tool. It currently does not support in-line text editing. Any text you place in here will be lost. If you need to comment on your tab, please use the "Tab Notes" section located below.