Authority

(/) Slide Up  (\) Slide Down  (h) Hammer On  (p) Pull Off  (b) Bend (r) Release (v) Vibrato
E|-------------------------------------------------------------------------------------------------
B|-------------------------------------------------------------------------------------------------
G|--------5-----------5-----------3-------------------------3-----------4-----------3--------------
D|-----5-----5-----5-----5-----3-----3--5----------------3-----3-----4-----4-----3-----3-----------
A|--3-----------------------0--------------4v--3v--4--0-----------0-----------0-----------3--3--4--
E|--------------4----------------------------------------------------------------------------------



E|-----------------------------------------------------2--2--2--2--3--3--3--
B|-----------------------------------------------2--2--3--3--3--3-----------
G|--------------0--0--0--1--1--1--1--1--1--1--1--2--2--2--2--2--2-----------
D|-----5--------1--1--1--2--2--2--2--2--2--2--2--2--2-----------------------
A|--3-----------1--1--1--2--2--2--2--2--2--2--2--------------------2--2--2--
E|--------3--4-----------------------------------------------------3--3--3--



E|----------------------------------------------------------------------
B|----------------------------------------------------------------------
G|----------------------------------------------------------------------
D|--5--5--5--5--5--5--5--5--5--5------7--7--7--7--7--7--7--7--7--7------
A|--5--5--5--5--5--5--5--5--5--5------7--7--7--7--7--7--7--7--7--7------
E|--3--3--3--3--3--3--3--3--3--3--4v--5--5--5--5--5--5--5--5--5--5--6v--



E|--------------------------------------------------
B|--------------------------------------------------
G|--7--7--7--7--7--7--------------------------------
D|--7--7--7--7--7--7--7--7--7--7--5--5--5--5--4--3--
A|--5--5--5--5--5--5--7--7--7--7--5--5--5--5--4--3--
E|--------------------5--5--5--5--3--3--3--3--2--1--



E|---------------------------------------------------------------------------
B|---------------------------------------------------------------------------
G|--5-----5---------------------------5--------5-----------3-----------------
D|--5--5-----5---------5--4--3-----5-----5--5-----5-----3-----3--5-----------
A|--3-----------2v--3-----------3--------------------0--------------4--3--4--
E|---------------------------------------------------------------------------
http://www.guitartabcreator.com
Guitar Tab Creator is intended to store guitar tab created through the tool. It currently does not support in-line text editing. Any text you place in here will be lost. If you need to comment on your tab, please use the "Tab Notes" section located below.