eyes cant tell lies

(/) Slide Up  (\) Slide Down  (h) Hammer On  (p) Pull Off  (b) Bend (r) Release (v) Vibrato


E|--------------------------------------------------------0\---
B|-----------0--------1--------0-----------------0--------0----
G|--------2-----2--------2--------2-----------2-----2-----2----
D|-----2-----------2--------2--------2-----2-----------2--2----
A|--0-----------------------------------0-----------------0----
E|-------------------------------------------------------------



E|-----------------------------------------------------------------------------
B|-----------0--------1--------0-----------------0--------1--------0-----------
G|--------2-----2--------2--------2-----------2-----2--------2--------2--------
D|-----2-----------2--------2--------2-----1-----------1--------1--------1-----
A|--0--------------------------------------------------------------------------
E|--------------------------------------2--------------------------------------



E|--------------------------------------------------------0--
B|-----------1-----------------0-----------------1--------1--
G|--------2-----2-----------1-----1-----------2-----2-----2--
D|-----------------------------------0-----2-----------2--2--
A|-----3-----------3-----2--------------0-----------------0--
E|--1-----------------0--------------------------------------



E|--------------------------------------
B|-----------0--------1--------3--------
G|--------2-----2--------2--------2-----
D|-----2-----------2--------2--------2--
A|--0-----------------------------------
E|--------------------------------------
http://www.guitartabcreator.com
Guitar Tab Creator is intended to store guitar tab created through the tool. It currently does not support in-line text editing. Any text you place in here will be lost. If you need to comment on your tab, please use the "Tab Notes" section located below.