Pierce The Veil: King for a Day

(/) Slide Up  (\) Slide Down  (h) Hammer On  (p) Pull Off  (b) Bend (r) Release (v) Vibrato


E|-----------------------------------------------------------------------
B|-----------------------------------------------------------------------
G|------9--10--12----14--15--14--13----12------14--13----12------15--14--
D|--12-------------------------------------11----------------11----------
A|-----------------------------------------------------------------------
E|-----------------------------------------------------------------------



E|------------------------------------
B|------------------------------------
G|------------------------------------
D|------------------------------------
A|--0--0----4----4----0--0----4----4--
E|--0--0--------------0--0------------



E|------------------------------------------------------------------------------------
B|----------------------10--13--10--13--3--11--8--10----------------------------------
G|--14--15--14--12--14--10--12--10--12--2--10--7--9-----------------------------------
D|----------------------12--10--12--10--0--8---5--7-----------------------------------
A|--12--13--12--10--12------------------0--8---5--7--------4--7--4--7--4--7--4--7-----
E|--------------------------------------0--8---5--7-----0-----------------------------



E|-------------------------------------------------------------------------
B|-------------------------------------------------------------------------
G|-------------------------------------------------------------------------
D|-------------------------------------------------------------------------
A|-----4--7--4--7--4--7--4--7-------5--8--5--8--5--8-----5--8--5--8--5--8--
E|--0----------------------------0--------------------0--------------------



E|----------------------------------------------------------
B|----------------------------------------------10--13--10--
G|----------------------------------------------10--12--10--
D|----------------------------------------------12--10--12--
A|-----4--7--4--7--4--7-----4--7--4--7--4--7----------------
E|--0--------------------0----------------------------------



E|-----------------------------------------------------------
B|--3--11--8--10--3--11--8--10-------------------------------
G|--2--10--7--9---2--10--7--9---------14--10--15--13--9--14--
D|--0--8---5--7---0--8---5--7--------------------------------
A|--0--8---5--7---0--8---5--7---0--0--12--8---13--11--7--12--
E|--0--8---5--7---0--8---5--7---0--0-------------------------



E|-------------------------------------------------------------------------------------
B|-------------------------------------------------------------------------------------
G|-------------------------------------------------------------------------------------
D|-------------------------------------------------------------------------------------
A|--0--------------5-----7-----8--6--------------5-----7-----8--6--6--6--6--6--8----7--
E|--0--0--0--0--0-----0-----0-----6--6--6--6--6-----6-----6-----6--6--6--6--6----------



E|-----------------------------------------------
B|-----------------------------------------------
G|-----------------------------------------------
D|-----------------------------------------------
A|--0--------0--------0--5--0--0--7--0--0--8--0--
E|--0--0--0--0--0--0--0--------------------------



E|--------------------------------------------------------------
B|--------------------------------------------------------------
G|--------------------------------------------------------------
D|-----------------------------------------------0--8--5--7-----
A|--6--------6--------6--5--0--0--7--0--0--8--0--0--8--5--7--0--
E|--6--6--6--6--6--6--6--------------------------0--8--5--7--0--
http://www.guitartabcreator.com
Guitar Tab Creator is intended to store guitar tab created through the tool. It currently does not support in-line text editing. Any text you place in here will be lost. If you need to comment on your tab, please use the "Tab Notes" section located below.