Needle and Haystack Life - Switchfoot

(/) Slide Up  (\) Slide Down  (h) Hammer On  (p) Pull Off  (b) Bend (r) Release (v) Vibrato

E|-3-----3-1-----1-0-----0-------3-
B|---1-------1-------1-----3-1-3---
G|-----0-------0-------0-----------
D|---------------------------------
A|---------------------------------
E|---------------------------------



E|-------------------
B|-----1-0-----------
G|---------1---------
D|---0---------3-2---
A|-0---------------3-
E|-------------------



E|-------------------------------------------------------------------
B|-------------------------------------------------------------------
G|-4/5b5b5b5b5b5b5b5b5-5-5-5-5-5-5-5-3-3-3-3-3-3-3-3-6-6-6-6-5-5-5-5-
D|-------------------------------------------------------------------
A|-------------------------------------------------------------------
E|-------------------------------------------------------------------



E|-------------------------------------------------------------------------
B|-------------------------------------------------------------------------
G|-------------------------------------------------------------------------
D|-3-3-3-3-3-3-3-3-3-3-3-3-3-3-3-3-10-10-10-10-10-10-10-10-5-5-5-5-5-5-5-5-
A|-3-3-3-3-3-3-3-3-3-3-3-3-3-3-3-3-10-10-10-10-10-10-10-10-5-5-5-5-5-5-5-5-
E|-1-1-1-1-1-1-1-1-1-1-1-1-1-1-1-1-8--8--8--8--8--8--8--8--3-3-3-3-3-3-3-3-



E|-------------------------------------------------------
B|-------------------------------------------------------
G|-------------------------------------------------------
D|-7-7-7-7-7-7-7-3-3-3-3-3-3-3-10-10-10-10-10-10-10-10-5-
A|-7-7-7-7-7-7-7-3-3-3-3-3-3-3-10-10-10-10-10-10-10-10-5-
E|-5-5-5-5-5-5-5-1-1-1-1-1-1-1-8--8--8--8--8--8--8--8--3-



E|-----
B|-----
G|-----
D|-----
A|-----
E|-----
http://www.guitartabcreator.com
Guitar Tab Creator is intended to store guitar tab created through the tool. It currently does not support in-line text editing. Any text you place in here will be lost. If you need to comment on your tab, please use the "Tab Notes" section located below.